Amends- Thenighttimeproject - Guitar Tabs

BPM : 200

E|-----------------------------------------------5--7--9-----------12----0--0--7-----------
B|-----------------------------------------5---------------7/---7-----------------7-----5--
G|--------------------2--------------6-----------------------------------------------------
D|-----------------------2--4--------------------------------------------------------------
A|--------4-----2--4-----------------------------------------------------------------------
D|--4--------------------------------------------------------------------------------------

E|--------------------------
B|--------------------------
G|--------------------2-----
D|--0-----2-----0--2-----4--
A|--------------------------
D|--------------------------

Song lyrics here 
E|-----------------------------------------------------------
B|--9-----------9--10-7-----9--10-7-----5-----3-----5-----2--
G|-----------------------------------------------------------
D|-----------------------------------------------------------
A|-----------------------------------------------------------
D|-----------------------------------------------------------

E|--------------7--9-----------------------------------------------------------
B|--9-----------------7-----9--10-7-----5-----3-----2-----0--------------------
G|--------------------------------------------------------------2-----1--------
D|--------------------------------------------------------------------------4--
A|-----------------------------------------------------------------------------
D|-----------------------------------------------------------------------------
tabs and chords, guitar tabs, music transcription, music technology, deep learning, music information retrieval, transcribe into tabs & chords, chordify, music renditions, songsterr, reverbnation, tabulature, bollywood chords, ultimate guitar, yousician, guitar lessons, acoustic guitar, electric guitar, guitar tuner, 911 tabs