Guitar Tabs for Aldirma Gönül

(/) Slide Up  (\) Slide Down  (h) Hammer On  (p) Pull Off  (b) Bend () Release (v) Vibr

E|-----2--0-----0--2--0-----0-----------------X4
B|--0--------------------4-----1-----1--4--1--
G|--------------------------------------------
D|--------------------------------------------
A|--------------------------------------------
E|--------------------------------------------

Song lyrics here
E|-----2--3--3--2--2-----2--0-----2--0--------------------0--2--2--0--0-----0-----0-----------
B|--0-----------------------------------4--4-----------------------------------4-----4--1--1--
G|--------------------------------------------------------------------------------------------
D|--------------------------------------------------------------------------------------------
A|--------------------------------------------------------------------------------------------
E|--------------------------------------------------------------------------------------------

E|-----0--0--------------------------------------------------------------------0--2--5--3--2--3--
B|--4--------4--4-----4--1-----1--1--0--0-----------1--4--1--0--1-----0--1--4--------------------
G|-----------------------------------------------------------------2-----------------------------
D|-----------------------------------------------------------------------------------------------
A|-----------------------------------------------------------------------------------------------
E|-----------------------------------------------------------------------------------------------

E|-----2--3--3--2--2-----2--0-----2--0--------------------0--2--2--0--0-----0-----0-----------
B|-----------------------------------------4--4--------------------------------4-----4--1--1--
G|--------------------------------------------------------------------------------------------
D|--------------------------------------------------------------------------------------------
A|--------------------------------------------------------------------------------------------
E|--------------------------------------------------------------------------------------------

E|--------0--0--------------------------------------------------------------0-----0--2--
B|-----4--------4--4-----4--1-----1--1--0--0-----------1--4--1--0--1-----0-----4--------
G|--------------------------------------------------------------------2-----------------
D|--------------------------------------------------------------------------------------
A|--------------------------------------------------------------------------------------
E|---------------------------------------------------------------------------------------

Paste any tab in acousterr's tab maker and we'll play it !!!
Now supports capo and sound effects for vibrato/pull-off/hammer/bends/mutes etc !!! Checkout help section
tabs and chords, guitar tabs, music transcription, music technology, deep learning, music information retrieval, transcribe into tabs & chords, chordify, music renditions, songsterr, reverbnation, tabulature, bollywood chords, ultimate guitar, yousician, guitar lessons, acoustic guitar, electric guitar, guitar tuner, 911 tabs