Guitar Tabs for Ajeeb Dastan Hai Yeh

(/) Slide Up  (\) Slide Down  (h) Hammer On  (p) Pull Off  (b) Bend (r) Release (v) Vibrato (x) Muted

Tabs for Song : Ajeeb Dastan Hai Yeh

Song lyrics here 
E|--------------------------
A|--------------------3-----
D|--------------2--0-----2--
G|--2--0--2--0--------------
B|--------------------------
E|--------------------------

E|--------------------------
A|--------------------3-----
D|--------------2--0-----0--
G|--2--0--2--0--------------
B|--------------------------
E|--------------------------

E|-----------------------------
A|--------------3--2--0--2--0--
D|--2--0--2--0-----------------
G|-----------------------------
B|-----------------------------
E|-----------------------------

E|--------------------------
A|--------------------3--3--
D|--------------2--0--------
G|--2--0--2--0--------------
B|--------------------------
E|--------------------------

E|--------------------------
A|--3-----------------------
D|-----0--2--3--2--3--0--3--
G|--------------------------
B|--------------------------
E|--------------------------

E|--------------------------
A|--------------------------
D|--------------3--3--------
G|--2--0--2--0--------2--0--
B|--------------------------
E|--------------------------

E|--------------------------
A|--3-----------------------
D|-----0--2--3--2--3--0--3--
G|--------------------------
B|--------------------------
E|--------------------------

E|--------------------------
A|--------------------------
D|--------------3--3--------
G|--2--0--2--0--------2--0--
B|--------------------------
E|--------------------------

E|-----------------------------
A|-----------------------------
D|--------------------------3--
G|--0--2-----------------0-----
B|--------0--1--0--1--0--------
E|-----------------------------

E|--------------------------
A|--------------------3--3--
D|--3-----------2--0--------
G|-----0--2--0--------------
B|--------------------------
E|--------------------------
tabs and chords, guitar tabs, music transcription, music technology, deep learning, music information retrieval, transcribe into tabs & chords, chordify, music renditions, songsterr, reverbnation, tabulature, bollywood chords, ultimate guitar, yousician, guitar lessons, acoustic guitar, electric guitar, guitar tuner, 911 tabs