Bass Tabs for Adsadasd

(/) Slide Up  (\) Slide Down  (h) Hammer On  (p) Pull Off  (b) Bend (r) Release (v) Vibrato (x) Muted

Tabs for Song : 
BPM : 172

Verse
G|--------------------------------------------------------------------------
D|--------5-----------------5--5-----------------12-11-10-------14-14-12-12-
A|--0--0-----5--5-----------------7--7--8---8/10----------10-10/------------
E|-----------------0--0--0--------------------------------------------------
x1
Bridge
G|-----------------------------------------------------
D|---0/10-12-10----12/14-12----12-14-15-15-15-15-14-12-
A|--------------10-------------------------------------
E|--------------------------0--------------------------

Song lyrics here
G|--------------------------------------------------------------
D|--------------------------------------------------------------
A|--(3)3--3--3--3--3--3--3--3--5--3-----------------------------
E|-----------------------------------(3)3--3--3--3--3--3--3--3--

G|-----------------------------------------------------------------------------------
D|-----------------------------------------------------------------------------------
A|--7--5--7--7--7--7--7--7--7--7--7--7--5--7--8--8--8--8--8--8--8--8--8--8--7--5--5--
E|-----------------------------------------------------------------------------------
-
x2
G|--------------------------------
D|---------------------------3(x12)
A|-----3(x12)--2(x12)-1(x12)------
E|--------------------------------




Verse  
Bridge 
Chorus  
Chorus 2
Verse
Bridge 
Chorus 
Chorus 2








Paste any tab in acousterr's tab maker and we'll play it !!!
Now supports capo and sound effects for vibrato/pull-off/hammer/bends/mutes etc !!! Checkout help section
tabs and chords, guitar tabs, music transcription, music technology, deep learning, music information retrieval, transcribe into tabs & chords, chordify, music renditions, songsterr, reverbnation, tabulature, bollywood chords, ultimate guitar, yousician, guitar lessons, acoustic guitar, electric guitar, guitar tuner, 911 tabs