Ukulele Tabs for Abigail Song # 1

(/) Slide Up  (\) Slide Down  (h) Hammer On  (p) Pull Off  (b) Bend (r) Release (v) Vibrato (x) Muted

Tabs for Song : 

Song lyrics here
A|--------3--------3--------2--------2--------1--------1--------0--------0--
E|-----0--------0--------0--------0--------0--------0--------1--------1-----
C|--0--------0--------0--------0--------0--------0--------0--------0--------
G|--------------------------------------------------------------------------

A|--------3--------3--------2--------2--------1--------1--------0--------0--
E|-----0--------0--------0--------0--------0--------0--------1--------1-----
C|--0--------0--------0--------0--------0--------0--------0--------0--------
G|--------------------------------------------------------------------------

A|--------0--------0--------0--------0--------0--------0--------2--------2--
E|-----1--------1--------1--------1--------1--------1--------1--------1-----
C|--2--------2--------2--------2--------0--------0--------2--------2--------
G|--------------------------------------------------------------------------

A|--------5--------5--------3--------3--------5--------5--------3--------3--
E|-----0--------0--------0--------0--------0--------0--------0--------0-----
C|--0--------0--------0--------0--------0--------0--------0--------0--------
G|--------------------------------------------------------------------------

A|--------0--------0--------0--------0--------0--------0--------2--------2--
E|-----1--------1--------1--------1--------1--------1--------1--------1-----
C|--2--------2--------2--------2--------0--------0--------2--------2--------
G|--------------------------------------------------------------------------

A|--------5--------5--------3--------3--------5--------5--------3--------3--
E|-----0--------0--------0--------0--------0--------0--------0--------0-----
C|--0--------0--------0--------0--------0--------0--------0--------0--------
G|--------------------------------------------------------------------------

A|--------0--------0--------0--------0--------0--------0--------2--------2--
E|-----1--------1--------1--------1--------1--------1--------1--------1-----
C|--2--------2--------2--------2--------0--------0--------2--------2--------
G|--------------------------------------------------------------------------

A|--3--
E|--0--
C|--0--
G|--0--

Song lyrics here
A|--
E|--
C|--
G|--

Paste any tab in acousterr's tab maker and we'll play it !!!
Now supports capo and sound effects for vibrato/pull-off/hammer/bends/mutes etc !!! Checkout help section
tabs and chords, guitar tabs, music transcription, music technology, deep learning, music information retrieval, transcribe into tabs & chords, chordify, music renditions, songsterr, reverbnation, tabulature, bollywood chords, ultimate guitar, yousician, guitar lessons, acoustic guitar, electric guitar, guitar tuner, 911 tabs