Guitar Tabs for Aage Bhi Jaane Na Tu - Asha Bhonsle tabs

(/) Slide Up  (\) Slide Down  (h) Hammer On  (p) Pull Off  (b) Bend (r) Release (v) Vibrato

Tabs for Song : Aage bhi jaane na tu

Aage bhi jaane na tu,
E|-----------------------------
B|--------4--3--4--3-----------
G|-----3--------------3--5-----
D|--5--------------------------
A|-----------------------------
E|-----------------------------

peechhe bhi jaane na tu
E|--------------------------------------
B|--------------------------------------
G|-----3--5-----3--5--3-----------------
D|--5--------------------5--3--1--3-----
A|--------------------------------------
E|--------------------------------------

jo bhi hai, bas yahi ek pal hai
E|--------------------------------------------
B|--------------------------------------------
G|-----------3-----3--------------------------
D|--1--3--5-----5-----5--3--1--------3--------
A|-----------------------------3--------6-----
E|--------------------------------------------

Anjaane saayo ka
E|-----------------------
B|-----------------------
G|-----------------------
D|--5--5--5--3-----------
A|--------------6--6-----
E|-----------------------

raaho mein dera hai
E|-----------------------
B|-----------------------
G|-----------------------
D|--5--5--5--3-----------
A|--------------6--6-----
E|-----------------------

Andekhi baaho ne 
E|-----------------------
B|-----------------------
G|--------------5--5-----
D|--5--5--5--6-----------
A|-----------------------
E|-----------------------

ham sabko ghera hai
E|--------------------------
B|-----4--------------------
G|--5-----5--5--3--3--3-----
D|--------------------------
A|--------------------------
E|--------------------------

Ye pal ujaala hai 
E|-----------------------
B|-----------------------
G|-----------------------
D|--5--5--5--3-----------
A|--------------6--6-----
E|-----------------------

baaqi andhera hai
E|-----------------------
B|-----------------------
G|-----------------------
D|--5--5--5--3-----------
A|--------------6--6-----
E|-----------------------

Ye pal gawaana na
E|-----------------------
B|-----------------------
G|--------------5--5-----
D|--5--5--5--6-----------
A|-----------------------
E|-----------------------

ye pal hi tera hai
E|--------------------------
B|-----4--------------------
G|--5-----5--5--3--3--3-----
D|--------------------------
A|--------------------------
E|--------------------------

Jeene waale soch le 
E|-----------------------------------
B|--4--4-----4--6--4-----------------
G|--------------------5--5--3--5-----
D|-----------------------------------
A|-----------------------------------
E|-----------------------------------

yahi waqt hai kar le 
E|-----------------------------
B|--4--------------------------
G|-----5--3-----3--------------
D|-----------5-----5--3--3-----
A|-----------------------------
E|-----------------------------

puri aarzoo
E|--------------------
B|--------------------
G|--------------------
D|--5--3--5-----------
A|-----------3--6-----
E|--------------------

Is dil ke jalwo ne
E|-----------------------
B|-----------------------
G|--5--5--5--3-----------
D|-----------------------
A|--------------6--6-----
E|-----------------------

mehfil sawaari hai
E|-----------------------
B|-----------------------
G|-----------------------
D|--5--5--5--3-----------
A|--------------6--6-----
E|-----------------------

Is pal ki garmi ne
E|-----------------------
B|-----------------------
G|--------------5--5-----
D|--5--5--5--6-----------
A|-----------------------
E|-----------------------

dhadkan ubhaari hai
E|--------------------------
B|-----4--------------------
G|--5-----5--5--3--3--3-----
D|--------------------------
A|--------------------------
E|--------------------------

Is pal ke hone se
E|-----------------------
B|-----------------------
G|-----------------------
D|--5--5--5--3-----------
A|--------------6--6-----
E|-----------------------

duniya hamaari hai
E|-----------------------
B|-----------------------
G|-----------------------
D|--5--5--5--3-----------
A|--------------6--6-----
E|-----------------------

Ye pal jo dekho to 
E|-----------------------
B|-----------------------
G|--------------5--5-----
D|--5--5--5--6-----------
A|-----------------------
E|-----------------------

sadiyo pe bhaari hai
E|--------------------------
B|-----4--------------------
G|--5-----5--5--3--3--3-----
D|--------------------------
A|--------------------------
E|--------------------------

Jeene waale soch le 
E|-----------------------------------
B|--4--4-----4--6--4--------3--------
G|--------------------5--3-----5-----
D|-----------------------------------
A|-----------------------------------
E|-----------------------------------

yahi waqt hai kar le
E|-----------------------------
B|--4--------------------------
G|-----5--3-----3--------------
D|-----------5-----5--3--3-----
A|-----------------------------
E|-----------------------------

purii aarzoo
E|--------------------
B|--------------------
G|--------------------
D|--5--3--5-----------
A|-----------3--6-----
E|--------------------

tabs and chords, guitar tabs, music transcription, music technology, deep learning, music information retrieval, transcribe into tabs & chords, chordify, music renditions, songsterr, reverbnation, tabulature, bollywood chords, ultimate guitar, yousician, guitar lessons, acoustic guitar, electric guitar, guitar tuner, 911 tabs