Guitar Tabs for Tu Jaane Na Intro

(/) Slide Up  (\) Slide Down  (h) Hammer On  (p) Pull Off  (b) Bend (r) Release (v) Vibrato (x) Muted

Tabs for Song : 
E|--------------0--------------------------------0--------------------------2-----------------------------0--------
B|-----0-----------------------------0-----------------------------0-----------------------------------------------
G|--2-----2-----------2-----------------2-----------2--------2--------2-----------2--------------------------------
D|--2--------------------------2--------------------------0------------------------------------1/2--2-----------2--
A|--0--------------------------------------------------------------------------------------2-----------------------
E|--------------------------2-----------------------------------------------------------0--------------------------

E|-----------9--7--9-----------9--7--9-----------------10-9--10-------12----12-------
B|--------------------------------------------------------------------------------12-
G|------7/9--------------9-----------------------9-----------------------------------
D|-----------------------------------------------------------------------------------
A|-----------------------------------------------------------------------------------
E|-----------------------------------------------------------------------------------

Song lyrics here
E|--
B|--
G|--
D|--
A|--
E|--

Song lyrics here
E|--
B|--
G|--
D|--
A|--
E|--

Paste any tab in acousterr's tab maker and we'll play it !!!
Now supports capo and sound effects for vibrato/pull-off/hammer/bends/mutes etc !!! Checkout help section
tabs and chords, guitar tabs, music transcription, music technology, deep learning, music information retrieval, transcribe into tabs & chords, chordify, music renditions, songsterr, reverbnation, tabulature, bollywood chords, ultimate guitar, yousician, guitar lessons, acoustic guitar, electric guitar, guitar tuner, 911 tabs