Guitar Tabs for Aage Bhi Jane Na Tu

(/) Slide Up  (\) Slide Down  (h) Hammer On  (p) Pull Off  (b) Bend (r) Release (v) Vibrato (x) Muted

Tabs for Song : 

    age   bhi    jaane     na      tu       pichhebhi     jane         na    tu        jo bhi he            bas   yahi  ek     pal   he
E|--------12-------11-12-11-------------------------------------------------------------------------------------------------------------
B|-----12-------------------14-12----14----------12-14----12-14-12-------------------------------12-------------12----------------------
G|--13----------------------------------------13-------------------13-11----13-11----------11-13-------------13----13-11-------11-------
D|-----------------------------------------------------------------------14-------------14-------------------------------14-11-------14-
A|--------------------------------------------------------------------------------------------------------------------------------------
E|--------------------------------------------------------------------------------------------------------------------------------------
    anjane      saayo    ka            raaho  me     dera   he             andekhi       bahoon          ne       hum sab ko  ghera    he    (2 times)
E|--------------------------------------------------------------------------------------------------------------------11-12-------------------------
B|-----------------------------------------------------------------------------------------------------14----14----14-------12-------12-------12----
G|-----13-13-13-11----------------------13-13-13-11----------------------13----13----13-------13----13----------------------------------------------
D|--------------------14-------11----------------------14-------11/9-----------------------14-------------------------------------------------------
A|--------------------------------------------------------------------------------------------------------------------------------------------------
E|--------------------------------------------------------------------------------------------------------------------------------------------------
    jeene          wale       soch      le           yehi     waqt       he    karle   puri      arzoo
E|-----12----12-12-14-12----------------------------12/------------------------------------------------------
B|-----------------------------14----14-12-14-12-------12----14-------12-------------------------------------
G|--------------------------------------------------------------13----------11-13-11----13----11-------------
D|-----------------------------------------------------------------------------------------------14----11-14-
A|-----------------------------------------------------------------------------------------------------------
E|-----------------------------------------------------------------------------------------------------------

       lick
E|-----------------------------------------------------------------11-12-14-12----14-12----------------------------
B|--------------------------------12----------------14-------14-------------------------14-12----------------------
G|-----------------11-13----13-------13----11/13-------13-------------------------------------13-11----------------
D|--------11-13-14----------------------14----------------14----------------------------------------14-11----11----
A|-----14-------------------------------------------------------------------------------------------------14----11-
E|-----------------------------------------------------------------------------------------------------------------

Paste any tab in acousterr's tab maker and we'll play it !!!
Now supports capo and sound effects for vibrato/pull-off/hammer/bends/mutes etc !!! Checkout help section
tabs and chords, guitar tabs, music transcription, music technology, deep learning, music information retrieval, transcribe into tabs & chords, chordify, music renditions, songsterr, reverbnation, tabulature, bollywood chords, ultimate guitar, yousician, guitar lessons, acoustic guitar, electric guitar, guitar tuner, 911 tabs