Guitar Tabs for Tu Jaane Na Unplugged Guitar Intro & Lead

(/) Slide Up  (\) Slide Down  (h) Hammer On  (p) Pull Off  (b) Bend (r) Release (v) Vibrato

Tabs for Song : Tu Jaane Na Unplugged

Acoustic Intro
E|-----------------0--------------------------0--------------------------2--------------------------0--------
B|--------0--------------------------0--------------------------0--------------------------------------------
G|--2--------2-----------2--------------2-----------2--------2-----2-----------2------------1/2--2--------2--
D|--2-----------------------------2-----------------------0-----------------------------2--------------------
A|--0--------------------------------------------------------------------------------------------------------
E|-----------------------------2-----------------------------------------------------0-----------------------

Acoustic Lead (Just play the above intro over this lead)
E|--------------9--7-----9-----------9--7-----9-----------10-9-----10----12----12-------
B|-----------------------------------------------------------------------------------12-
G|------7/9--------------------9--------------------9-----------------------------------
D|--------------------------------------------------------------------------------------
A|--------------------------------------------------------------------------------------
E|--------------------------------------------------------------------------------------

Now supports capo and sound effects for vibrato/pull-off/hammer/bends etc !!! Checkout help section
tabs and chords, guitar tabs, music contests, music covers, songsterr, reverbnation, renditions, tabulature, bollywood chords, ultimate guitar, yousician, guitar lessons, torrins, fender, gibson, acoustic guitar, electric guitar, youtube covers, gootar, guitar tuner, A-Z tabs, 911 tabs