Guitar Tabs for Aaba

(/) Slide Up  (\) Slide Down  (h) Hammer On  (p) Pull Off  (b) Bend (r) Release (v) Vibrato (x) Muted

Tabs for Song : 
BPM : 200
Song lyrics here 
E|-----0--------------0--------------------------------7---------------5--------------3-----------
B|--------0-----0--------1-----1-----3--------------------8-----8--------7-----7--------5-----5--
G|-----------0--------------0-----------0-----0--------------9--------------7--------------5-----
D|-----------------------------------------4-----------------------------------------------------
A|-----------------3--------------5--------------7-----------------5--------------3--------------
E|--0--------------------------------------------------------------------------------------------


E|-----0--------------0--------------------------------7--------------5--------------3-----------
B|--------0-----0--------1-----1-----3--------------------8-----8--------7-----7--------5-----5--
G|-----------0--------------0-----------0-----0--------------9--------------7--------------5-----
D|-----------------------------------------4-----------------------------------------------------
A|-----------------3--------------5--------------7-----------------5--------------3--------------
E|--0--------------------------------------------------------------------------------------------


E|-----------0-----------------------------------------------------------------------3-----------0--
B|-----------------------1-----------3-----------1-----------3-----------1--------------------------
G|--------2-----------2-----------0-----------0-----------2-----------2-----------0-----------0-----
D|-----2-----------2-----------2-----------2-----------0-----------0-----------0-----------0--------
A|--0-----------0-----------3-----------3-----------2-----------2-----------0-----------2-----------
E|--------------------------------------------------------------------------------------------------



E|-----0--------------0--------------------------------7--------------5--------------3-----------0---
B|--------0-----0--------1-----1-----3--------------------8-----8--------7-----7--------5-----5--1--
G|-----------0--------------0-----------0-----0--------------9--------------7--------------5-----2--
D|-----------------------------------------4-----------------------------------------------------2--
A|-----------------3--------------5--------------7-----------------5--------------3--------------0--
E|--0-----------------------------------------------------------------------------------------------

Guitar Tabs for Aaba





E|--
B|--
G|--
D|--
A|--
E|--

tabs and chords, guitar tabs, music transcription, music technology, deep learning, music information retrieval, transcribe into tabs & chords, chordify, music renditions, songsterr, reverbnation, tabulature, bollywood chords, ultimate guitar, yousician, guitar lessons, acoustic guitar, electric guitar, guitar tuner, 911 tabs