Bass Tabs for A7

(/) Slide Up  (\) Slide Down  (h) Hammer On  (p) Pull Off  

Tabs for Song :A7 (The one with vioins idk lol) 

This is the Intro, but the same thing will happen in the chorus
G|-----------8--------------------8-----------------------7--------------------7-----------
D|---------------7h-9p7---------------7h-9p7------------------5h-7p5-----------------------
A|--7--7--7--------------7--7--7-----------------5--5--5--------------5--5--5-----5-----5--
E|-----------------------------------------------------------------------------------3-----

Intro continued, the chord shapes change with the rhythm guitar - on the last note, choke it abruptly
G|-----------8--------------------8--------------------------------------------------------11-------11-------------
D|---------------7h-9p7---------------7h-9p7-----------10-------10-------------------------------------------------
A|--7--7--7--------------7--7--7-----------------------------7--------5--5---5/9--9--9--9-----9--9-----9--9--9--9--
E|--------------------------------------------8--8--8-----8--------------------------------------------------------

Verse 1 - Repeat this part TWICE, then go to the next part
G|--------------11----------------------------------------
D|--------------------------------------------------------
A|---3/9--9--9-----9--9-----9-----4--4---4/7--7---7\2--2--
E|-----------------------7--------------------------------
Verse 1 - Wierd part after the previous 2 repeats but the returns to the same pattern for the 4th repeat
G|-----------11-------------------------------------------------11-------------------------------------4-----4--
D|--------------------------------------------------------------------------------------------------------------
A|--9--9--9-----9--9-----7--6--6--6--4--4--4--4--4-----9--9--9-----9--9-----9--4--4---4/7--7---7\2--2-----2-----
E|--------------------7--------------------------------------------------7--------------------------------------

Chorus 1 - Same as intro
G|-----------8--------------------8-----------------------7--------------------7-----------
D|---------------7h-9p7---------------7h-9p7------------------5h-7p5-----------------------
A|--7--7--7--------------7--7--7-----------------5--5--5--------------5--5--5-----5-----5--
E|-----------------------------------------------------------------------------------3-----
Chorus 1 - Cont..
G|-----------8--------------------8--------------------------------------------------------11-------11-------------
D|---------------7h-9p7---------------7h-9p7-----------10-------10-------------------------------------------------
A|--7--7--7--------------7--7--7-----------------------------7--------5--5---5/9--9--9--9-----9--9-----9--9--9--9--
E|--------------------------------------------8--8--8-----8--------------------------------------------------------

Verse 2 - Repeat this section TWICE, then go to the next part
G|--------------11-------------------------------------------
D|-----------------------------------------------------------
A|---3/9--9--9-----9--9-----9-----4--4---4/7--7---7\2--2-----
E|-----------------------7-----------------------------------
Verse 2 - Cont, it has a wierd part again for the 3rd repeat but then for the 4th repeat go to previous as shown
G|-----------------------------------------------------------------11-------------------------------4-----4-----4--
D|--------------------------11-9--9--9--9--------------------------------------------------------------------------
A|---8h9--9--9---8h9--9--9-----------------7--7--7--7-----9--9--9-----9--9-----9--4--4--4--7--7--2-----2-----2-----
E|--------------------------------------------------------------------------7--------------------------------------

Chorus 2 - It's a double chorus so you'll do a build up after the second repeat and repeat the chorus again.
G|-----------8--------------------8-----------------------7--------------------7-----------------------7--7--7--7--
D|---------------7h-9p7---------------7h-9p7------------------5h-7p5-----------------------------------------------
A|--7--7--7--------------7--7--7-----------------5--5--5--------------5--5--5-----5-----5--------5--5--------------
E|-----------------------------------------------------------------------------------3-----3--3--------------------
Chorus 2 - this part is just the chorus repeated
G|-----------8--------------------8--------------------------------------------------------11-------11-------------
D|---------------7h-9p7---------------7h-9p7-----------10-------10-------------------------------------------------
A|--7--7--7--------------7--7--7-----------------------------7--------5--5---5/9--9--9--9-----9--9-----9--9--9--9--
E|--------------------------------------------8--8--8-----8--------------------------------------------------------


Sadboi Bridge Section
G|-----------------------------------------------------------------------------------
D|-----------------------------------------------------------------------------------
A|--12\9-----9-----9--------5-----5-----5--------9-----9-----9--------2-----2-----2--
E|--------7-----7------7\3-----3-----3------3/7-----7-----7------7\0-----0-----0-----
Bridge continued into final chorus (build final note)
G|--------------------------------------------------------------------------------------
D|--------------------------------------------------------------------------------------
A|--12\9-----9-----9--------5-----5-----5--------2-----2-----2-----2--2--2--2--2--2--2--
E|--------7-----7------7\3-----3-----3------3/0-----0-----0-----0-----------------------

Chorus 3 Same as intro
G|-----------8--------------------8-----------------------7--------------------7-----------
D|---------------7h-9p7---------------7h-9p7------------------5h-7p5-----------------------
A|--7--7--7--------------7--7--7-----------------5--5--5--------------5--5--5-----5-----5--
E|-----------------------------------------------------------------------------------3-----
Chorus 3- Cont..
G|-----------8--------------------8--------------------------------------------------------11-------11-------------
D|---------------7h-9p7---------------7h-9p7-----------10-------10-------------------------------------------------
A|--7--7--7--------------7--7--7-----------------------------7--------5--5---5/9--9--9--9-----9--9-----9--9--9--9--
E|--------------------------------------------8--8--8-----8--------------------------------------------------------





Paste any tab in acousterr's tab maker and we'll play it !!!
Now supports capo and sound effects for vibrato/pull-off/hammer/bends/mutes etc !!! Checkout help section
tabs and chords, guitar tabs, music transcription, music technology, deep learning, music information retrieval, transcribe into tabs & chords, chordify, music renditions, songsterr, reverbnation, tabulature, bollywood chords, ultimate guitar, yousician, guitar lessons, acoustic guitar, electric guitar, guitar tuner, 911 tabs