Bass Tabs for From Now - Ssp

Tabs for Song : From Now

Intro - This is what you play for the intro when the drums come in
G|--------------------------------------------------------------
D|--------------5--5---3h5--3-----------------5--5---3h5--8-----
A|-----4--6--4-----------------------4--6--4--------------------
E|--4-----------------------------4-----------------------------

Verse 1 - When taylah starts singing
G|-----------------------------------------------------------------------------------------------------
D|--5--5--5--5--5--5--5-----------------------------------5--5--5--5--5--5--5--------------------------
A|-----------------------5--6--6--6--6--6--6--6--8--6--------------------------5--3--3--3--3--3--3--3--
E|-----------------------------------------------------------------------------------------------------

Chorus, Repeat this twice
G|--------12-------------10/12-10-------------------------------------12-------------10/12-10----------------------
D|--------------------10----------------------------------------------------------10-------------------------------
A|--10-10----10-10-8--------------4--4--4--4--4--4--4--6--4-----10-10----10-10-8--------------11-11-11-11-11-13-11-
E|-----------------------------------------------------------------------------------------------------------------

Verse 2 , same as Verse 1
G|-----------------------------------------------------------------------------------------------------
D|--5--5--5--5--5--5--5-----------------------------------5--5--5--5--5--5--5--------------------------
A|-----------------------5--6--6--6--6--6--6--6--8--6--------------------------5--3--3--3--3--3--3--3--
E|-----------------------------------------------------------------------------------------------------

Chorus, same as first chorus
G|--------12-------------10/12-10-------------------------------------12-------------10/12-10----------------------
D|--------------------10----------------------------------------------------------10-------------------------------
A|--10-10----10-10-8--------------4--4--4--4--4--4--4--6--4-----10-10----10-10-8--------------11-11-11-11-11-13-11-
E|-----------------------------------------------------------------------------------------------------------------

Verse 3
G|-----------------------------------------------------------------------------------------------------
D|--5--5--5--5--5--5--5-----------------------------------5--5--5--5--5--5--5--------------------------
A|-----------------------5--6--6--6--6--6--6--6--8--6--------------------------5--3--3--3--3--3--3--3--
E|-----------------------------------------------------------------------------------------------------

Bridge, play twice 
G|--------------------------------------------------------------------------------------------------------
D|--6--6--6--4--6--8--8--8-----------------------------6--6--6--4--6--8--8--8--8--------------------------
A|--------------------------8--10-10-10-10-10-10-10-------------------------------8--6--6--6--6--6--6--6--
E|--------------------------------------------------------------------------------------------------------

Hook into the chorus
G|--------------------------------------------------------------
D|--------------5--5---3h5--3-----------------5--5---3h5--8-----
A|-----4--6--4-----------------------4--6--4--------------------
E|--4-----------------------------4-----------------------------

Final Chorus
G|--------12-------------10/12-10-------------------------------------12-------------10/12-10----------------------
D|--------------------10----------------------------------------------------------10-------------------------------
A|--10-10----10-10-8--------------4--4--4--4--4--4--4--6--4-----10-10----10-10-8--------------11-11-11-11-11-13-11-
E|-----------------------------------------------------------------------------------------------------------------

Outro
G|--------------------------------------------------------------
D|--------------5--5---3h5--3-----------------5--5---3h5--8-----
A|-----4--6--4-----------------------4--6--4--------------------
E|--4-----------------------------4-----------------------------




tabs and chords, guitar tabs, music transcription, music technology, deep learning, music information retrieval, transcribe into tabs & chords, chordify, music renditions, songsterr, reverbnation, tabulature, bollywood chords, ultimate guitar, yousician, guitar lessons, acoustic guitar, electric guitar, guitar tuner, 911 tabs