Guitar Tabs for 2

(/) Slide Up  (\) Slide Down  (h) Hammer On  (p) Pull Off  (b) Bend (r) Release (v) Vibrato (x) Muted

Tabs for Song : 

Song lyrics here
E|-----------------------------3-----5-----------3------------------------------------
B|--0--1---3/12-0--1---3/12-5-----7-----8--8--7-----5--4--3--2--1--0--5--3--2--1--0-----
G|--------------------------------------------------------------------------------------
D|--------------------------------------------------------------0--------------0--------
A|-----0---2/10----0---2/10-3--4--5--6--7--6--5--4--3--3--2--0--------3--2--0-----------
E|--3-----------3--------------------------------------------------3--------------3-----

Song lyrics here
E|-----------------3-----5-----------3-----------------------------------------------------------
B|--0--1---3/12-5-----7-----8--8--7-----5--4--3--2--1--0--10-8--6--5--3--5--10-8--6--5--3--2--1--
G|-----------------------------------------------------------------------------------------------
D|--------------------------------------------------0-----------------------------------------0--
A|-----0---2/10-3--4--5--6--7--6--5--4--3--3--2--0--------8--7--5--3--1--3--8--7--5--3--1--0-----
E|--3--------------------------------------------------3-----------------------------------------

Paste any tab in acousterr's tab maker and we'll play it !!!
Now supports capo and sound effects for vibrato/pull-off/hammer/bends/mutes etc !!! Checkout help section
tabs and chords, guitar tabs, music transcription, music technology, deep learning, music information retrieval, transcribe into tabs & chords, chordify, music renditions, songsterr, reverbnation, tabulature, bollywood chords, ultimate guitar, yousician, guitar lessons, acoustic guitar, electric guitar, guitar tuner, 911 tabs