Guitar Tabs for Zombie - Cranberries

E|--------------------------------------------------------------------------------------
B|--9--7-----------7--------------------------------------------------------------------
G|-----------8-----------9-----8-----6-----9-----8-----6-----------6--------------------
D|-----------------------------------------------------------9--------8-----------------
A|--------------------------------------------------------------------------------------
E|--------------------------------------------------------------------------------------
-------------------------------------------------------------------

E|--------------------------------------------------------------------------------------
B|--9--7-----------7--------------------------------------------------------------------
G|-----------8-----------9-----8-----6-----9-----8-----6-----------6--------------------
D|-----------------------------------------------------------9--------8-----------------
A|--------------------------------------------------------------------------------------
E|--------------------------------------------------------------------------------------

E|--6--6-----------6-----------6--7--------6--7-----7--6--------7--6--------7--7--9--6--------------
B|--------9-----9-----9-----9-----------9-----------------7-----------7-----------------------------
G|--------------------------------------------------------------------------------------------------
D|--------------------------------------------------------------------------------------------------
A|--------------------------------------------------------------------------------------------------
E|--------------------------------------------------------------------------------------------------


E|--6--6-----------6-----------6--7--------6--7-----7--6--------7--6--------7--7--9--6--------------
B|--------9-----9-----9-----9-----------9-----------------7-----------7-----------------------------
G|--------------------------------------------------------------------------------------------------
D|--------------------------------------------------------------------------------------------------
A|--------------------------------------------------------------------------------------------------
E|--------------------------------------------------------------------------------------------------

E|--6--6--6--7--------------7--9--7-----9--7-----------6-----------6-----------6-----6-----6--------
B|--------------------9-----------------------9-----9-----7-----9-----7-----9-----------------------
G|--------------------------------------------------------------------------------------------------
D|--------------------------------------------------------------------------------------------------
A|--------------------------------------------------------------------------------------------------
E|--------------------------------------------------------------------------------------------------

E|--6--6--6--7--------------7--9--7-----9--7-----------6-----------6-----------6-----6-----6--------
B|--------------------9-----------------------9-----9-----7-----9-----7-----9-----------------------
G|--------------------------------------------------------------------------------------------------
D|--------------------------------------------------------------------------------------------------
A|--------------------------------------------------------------------------------------------------
E|--------------------------------------------------------------------------------------------------

E|--7--7--6--------
B|-----------9-----
G|-----------------
D|-----------------
A|-----------------
E|-----------------

E|--------------------------------------------------------------------------------------
B|--9--7-----------7--------------------------------------------------------------------
G|-----------8-----------9-----8-----6-----9-----8-----6-----------6--------------------
D|-----------------------------------------------------------9--------8-----------------
A|--------------------------------------------------------------------------------------
E|--------------------------------------------------------------------------------------
-------------------------------------------------------------------

E|--------------------------------------------------------------------------------------
B|--9--7-----------7--------------------------------------------------------------------
G|-----------8-----------9-----8-----6-----9-----8-----6-----------6--------------------
D|-----------------------------------------------------------9--------8-----------------
A|--------------------------------------------------------------------------------------
E|--------------------------------------------------------------------------------------

E|--6--6-----------6-----------6--7--------6--7-----7--6--------7--6--------7--7--9--6--------------
B|--------9-----9-----9-----9-----------9-----------------7-----------7-----------------------------
G|--------------------------------------------------------------------------------------------------
D|--------------------------------------------------------------------------------------------------
A|--------------------------------------------------------------------------------------------------
E|--------------------------------------------------------------------------------------------------


E|--6--6-----------6-----------6--7--------6--7-----7--6--------7--6--------7--7--9--6--------------
B|--------9-----9-----9-----9-----------9-----------------7-----------7-----------------------------
G|--------------------------------------------------------------------------------------------------
D|--------------------------------------------------------------------------------------------------
A|--------------------------------------------------------------------------------------------------
E|--------------------------------------------------------------------------------------------------

E|--6--6--6--7--------------7--9--7-----9--7-----------6-----------6-----------6-----6-----6--------
B|--------------------9-----------------------9-----9-----7-----9-----7-----9-----------------------
G|--------------------------------------------------------------------------------------------------
D|--------------------------------------------------------------------------------------------------
A|--------------------------------------------------------------------------------------------------
E|--------------------------------------------------------------------------------------------------

E|--6--6--6--7--------------7--9--7-----9--7-----------6-----------6-----------6-----6-----6--------
B|--------------------9-----------------------9-----9-----7-----9-----7-----9-----------------------
G|--------------------------------------------------------------------------------------------------
D|--------------------------------------------------------------------------------------------------
A|--------------------------------------------------------------------------------------------------
E|--------------------------------------------------------------------------------------------------

E|--7--7--6-----
B|-----------9--
G|--------------
D|--------------
A|--------------
E|--------------


tabs and chords, guitar tabs, music transcription, music technology, deep learning, music information retrieval, transcribe into tabs & chords, chordify, music renditions, songsterr, reverbnation, tabulature, bollywood chords, ultimate guitar, yousician, guitar lessons, acoustic guitar, electric guitar, guitar tuner, 911 tabs