Guitar Tabs for Cranberries Zombie

(/) Slide Up  (\) Slide Down  (h) Hammer On  (p) Pull Off  (b) Bend (r) Release (v) Vibrato (x) Muted

Tabs for Song : 
BPM : 200

Song lyrics here 
E|--0--------------------------------------------------0-----------------------------------------
B|-----3--0--3-----1--0-----1-----0-----------------0-----3--0--3--1--0-----1-----0--------------
G|-----------------------2-----------2--0--2-----------------------------2-----------2--0--2-----
D|--------------------------------------------4-----------------------------------------------4--
A|-----------------------------------------------------------------------------------------------
E|-----------------------------------------------------------------------------------------------

E|--2--2--0-----0--2--0-----0--2--3-----0--2--3-----3--2--------3--2-----3--3--5--2-----
B|--------------------------------------------------------3-----------3-----------------
G|--------------------------------------------------------------------------------------
D|--------------------------------------------------------------------------------------
A|--------------------------------------------------------------------------------------
E|--------------------------------------------------------------------------------------

E|--3--2--0-----0--2--0-----0--2--0-----0--2--0-----3--2--------3--2--------3--3--5--2-----2--2--3--0--
B|--------------------------------------------------------3-----------3--------------------------------
G|-----------------------------------------------------------------------------------------------------
D|-----------------------------------------------------------------------------------------------------
A|-----------------------------------------------------------------------------------------------------
E|-----------------------------------------------------------------------------------------------------

E|--2--5--3--5--3--0-----0--2--------0--2--------0--2--2-----2-----2-----2--2--2--3--0-----2--5--3--
B|-----------------------------3-----------3--------------------------------------------------------
G|--------------------------------------------------------------------------------------------------
D|--------------------------------------------------------------------------------------------------
A|--------------------------------------------------------------------------------------------------
E|--------------------------------------------------------------------------------------------------

E|--5--3--0-----0--2--------0--2--------0--2--2-----2-----2-----2--2--2--3-----0-----2--5--3--5--3--0--
B|--------------------3-----------3--------------------------------------------------------------------
G|-----------------------------------------------------------------------------------------------------
D|-----------------------------------------------------------------------------------------------------
A|-----------------------------------------------------------------------------------------------------
E|-----------------------------------------------------------------------------------------------------

E|--0--2--------0--2--------0--2--2-----2-----2-----2--0-----3--2-----------3--2-----------3--2--------
B|--------3-----------3--------------------------------------------0--1-----------1--0-----------1--0--
G|-----------------------------------------------------------------------------------------------------
D|-----------------------------------------------------------------------------------------------------
A|-----------------------------------------------------------------------------------------------------
E|-----------------------------------------------------------------------------------------------------

E|--3--2--------------7--8-----5--7-----3--5-----2--3--2-----------
B|--------1--0--------------------------------------------3--3-----
G|-----------------------------------------------------------------
D|-----------------------------------------------------------------
A|-----------------------------------------------------------------
E|-----------------------------------------------------------------

Song lyrics here 
E|--
B|--
G|--
D|--
A|--
E|--

Use manual mode to free up cursor. Paste any tab in acousterr tab maker and we'll play it !!!
tabs and chords, guitar tabs, music transcription, music technology, deep learning, music information retrieval, transcribe into tabs & chords, chordify, music renditions, songsterr, reverbnation, tabulature, bollywood chords, ultimate guitar, yousician, guitar lessons, acoustic guitar, electric guitar, guitar tuner, 911 tabs