Bass Tabs for The Cranberries, Zombie

The Cranberries
Zombie
BPM :84

Intro
G|-----------------------------------------------------------------------------------------------
D|-----------------------------------------------------------------------------------------------
A|-----------------------------------------------------------------------------------------------
E|--------------------------------------------------------------------------------------------12\

Chorus x2 
G|--------------------------------------------------------------------------------------------------
D|--------------------------------------------------------------------------------------------------
A|--------------------------3--3--3--3--3--3--5--3--------------------------------------------------
E|--0--0--0--0--0--0--3--0--------------------------3--3--3--3--3--3--5--3--2--2--2--2--3--2--3--2--

Verse x5
G|--------------------------------------------------------------------------------------------------
D|--------------------------------------------------------------------------------------------------
A|--------------------------3--3--3--3--3--3--3--3--------------------------------------------------
E|--0--0--0--0--0--0--0--0--------------------------3--3--3--3--3--3--3--3--2--2--2--2--3--2--3--2--

Chorus x3
G|--------------------------------------------------------------------------------------------------
D|--------------------------------------------------------------------------------------------------
A|--------------------------3--3--3--3--3--3--5--3--------------------------------------------------
E|--0--0--0--0--0--0--3--0--------------------------3--3--3--3--3--3--5--3--2--2--2--2--3--2--3--2--

Verse x5
G|--------------------------------------------------------------------------------------------------
D|--------------------------------------------------------------------------------------------------
A|--------------------------3--3--3--3--3--3--3--3--------------------------------------------------
E|--0--0--0--0--0--0--0--0--------------------------3--3--3--3--3--3--3--3--2--2--2--2--3--2--3--2--

Chorus x3
G|--------------------------------------------------------------------------------------------------
D|--------------------------------------------------------------------------------------------------
A|--------------------------3--3--3--3--3--3--5--3--------------------------------------------------
E|--0--0--0--0--0--0--3--0--------------------------3--3--3--3--3--3--5--3--2--2--2--2--3--2--3--2--

Solo x4
G|-----------------------------------------------
D|-----------------------------------------------
A|--------------------------3--3--3--5--3--------
E|--0--0--0--0--0--0--3--0-----------------3--2--

Chorus x3
G|--------------------------------------------------------------------------------------------------
D|--------------------------------------------------------------------------------------------------
A|--------------------------3--3--3--3--3--3--5--3--------------------------------------------------
E|--0--0--0--0--0--0--3--0--------------------------3--3--3--3--3--3--5--3--2--2--2--2--3--2--3--2--

Solo x3
G|-----------------------------------------------
D|-----------------------------------------------
A|--------------------------3--3--3--5--3--------
E|--0--0--0--0--0--0--3--0-----------------3--2--

Outro
G|-----
D|-----
A|-----
E|--0--
tabs and chords, guitar tabs, music transcription, music technology, deep learning, music information retrieval, transcribe into tabs & chords, chordify, music renditions, songsterr, reverbnation, tabulature, bollywood chords, ultimate guitar, yousician, guitar lessons, acoustic guitar, electric guitar, guitar tuner, 911 tabs