Bass Tabs for Zelda Theme (bass)

(/) Slide Up  (\) Slide Down  (h) Hammer On  (p) Pull Off  (b) Bend (r) Release (v) Vibrato (x) Muted

Tabs for Song : Zelda Theme (Bass)

Intro
G|--15-------15-15-15-15-15-15----13/15-------15-15-15-15-15-15----15----15-15-15-15-15-15----------15----15----15-
D|--------------------------------------------------------------------------------------------15-15----15----15----
A|-----------------------------------------------------------------------------------------------------------------
E|-----------------------------------------------------------------------------------------------------------------

|:

Part 1

G|--------------------7--8--10----10-10-11-13-13/15----15-15-13-11-13-11-10----
D|--8--------8--8--10----------------------------------------------------------
A|-----8-----------------------------------------------------------------------
E|-----------------------------------------------------------------------------

G|--10-8--10-10-11----10-8-----8--8--10----8--------------8------8/11-10-
D|--------------------------11----------------11-10-11-11----------------
A|-----------------------------------------------------------------------
E|-----------------------------------------------------------------------

Transition
G|--------------------------------
D|--8--8--8--8--8--8--8--8--8--8--
A|--------------------------------
E|--------------------------------

Part 2

G|--------------------7--8--10----10-10-11-13-13/15----19-18-14----10-11----14/15-13-10----
D|--8--------8--8--10----------------------------------------------------------------------
A|-----8-----------------------------------------------------------------------------------
E|-----------------------------------------------------------------------------------------

G|--10-11----14/15-13-10----7--8--10/11-10-7-----------------9------8/11-10-
D|-----------------------------------------------8--10-11-11----------------
A|--------------------------------------------------------------------------
E|--------------------------------------------------------------------------

Transition

:|




tabs and chords, guitar tabs, music transcription, music technology, deep learning, music information retrieval, transcribe into tabs & chords, chordify, music renditions, songsterr, reverbnation, tabulature, bollywood chords, ultimate guitar, yousician, guitar lessons, acoustic guitar, electric guitar, guitar tuner, 911 tabs