Guitar Tabs for Zelda Theme

(/) Slide Up  (\) Slide Down  (h) Hammer On  (p) Pull Off  (b) Bend (r) Release (v) Vibrato (x) Muted

Tabs for Song : 

Song lyrics here
E|-------------------------1-----1--1--2--4--6-----6--6--6--4--2--4--2--1----1--------1--2-----1----------------1------------------0-----3--1-------------------------------------
B|----------------1--3--4------------------------------------------------------4----4--------------4--2--2--4------4--2--1--1--3--------------------------------------------------
G|--3-------3--3------------------------------------------------------------------------------------------------------------------------------------------------------------------
D|-----3---------------------------------------------------------------------------------------------------------------------------------------3--3--3---3--3--3--3---3--3--3-----
A|--------------------------------------------------------------------------------------------------------------------------------------------------------------------------------

E|----------------------------1-----1--1--2--4--6----9--8--5----1--2--6--5--1----1--2--6--5--1--------2--1-----------------0--3--1--------
B|------------------1--3--4----------------------------------------------------------------------3--4--------2-----1--1--3--------------------
G|-----3------3--3----------------------------------------------------------------------------------------------3----------------------------
D|--3-----------------------------------------------------------------------------------------------------------------------
A|--------------------------------------------------------------------------------------------------------
E|--


Song lyrics here
E|--
B|--
G|--
D|--
A|--
E|--

Paste any tab in acousterr's tab maker and we'll play it !!!
Now supports capo and sound effects for vibrato/pull-off/hammer/bends/mutes etc !!! Checkout help section
tabs and chords, guitar tabs, music transcription, music technology, deep learning, music information retrieval, transcribe into tabs & chords, chordify, music renditions, songsterr, reverbnation, tabulature, bollywood chords, ultimate guitar, yousician, guitar lessons, acoustic guitar, electric guitar, guitar tuner, 911 tabs