Guitar Tabs for The Legend Of Zelda - Zelda's Lullaby

(/) Slide Up  (\) Slide Down  (h) Hammer On  (p) Pull Off  (b) Bend (r) Release (v) Vibrato (x) Muted

Tabs & Chords

Check Track 2 for Chord Positions 

    C              Am       C           Am          C                                         
E|--------0-----------------------0-----------------------0-----------------------------------
B|--------------------7-----------------------7-----0-----------------------7-----------0-----
G|-----0-----------------------0-----------------------0--------7-----------------0--------0--
D|-----------------7-----------------------7--------------------------7--------------7--------
A|--------------------------------------------------------------------------------------------
E|--8-----------8-----------8-----------8-----------------------------------------------------

                            Bm                      G              Am             D           C  
E|--0--------------------------------------------------------------------------------------------
B|--------------------7-----0-----10----------10----8-----8-----------8--------0--------7-----0--
G|--------7--------------------7--------7-----------------------7--------------------------------
D|--------------7--7-----------------------------11----------------10-------10----7--10----------
A|-----------------------------------------------------------------------------------------------
E|-----------------------------------------------------------------------------------------------

                      D        C                             Bm                         G     
E|-----0-----------------------------------0--------------------------------------------------
B|-----------------------7-----------0-----------------------7-----0-----10----------10----8--
G|--0--------7-----------------0--------0--------7--------------------7--------7--------------
D|-----------------7--7-----------7--------------------7--------------------------------11----
A|--------------------------------------------------------------------------------------------
E|--------------------------------------------------------------------------------------------

             Am          D           Dm                   G                                   
E|-----------10----------------------10----0-----8--7--8--7--------------8-----------7-----7--
B|-----8-----------8-----------7--------------10-------------8--8-----0-----------------10----
G|-----------------------------------------------------------------7--------------10----------
D|--------------10-------0--10----------10----------------------------------7--10-------------
A|--------------------------------------------------------------------------------------------
E|--------------------------------------------------------------------------------------------

       C              F                    C        G     
E|-----0--0--------------0-----8--7--8--7--------8-----15-
B|-----------0--------------10-------------8--8-----0-----
G|--0-----------0-----------------------------------------
D|--------------------10----------------------------------
A|-----------------8--------------------------------------
E|--------------------------------------------------------

Guitar Tabs for The Legend Of Zelda - Zelda's Lullaby






    C              Am       C           Am          C                                         
E|--0--------------0--------0-----------0-----------0-----------------------------------------
B|--1--------------1--------1-----------1-----------1-----------------------------------------
G|--0--------------2--------0-----------2-----------0-----------------------------------------
D|--2--------------2--------2-----------2-----------2-----------------------------------------
A|--3--------------0--------3-----------0-----------3-----------------------------------------
E|--------------------------------------------------------------------------------------------

                            Bm                      G              Am             D           C  
E|--------------------------2-----------------------3--------------0--------------2-----------0--
B|--------------------------3-----------------------3--------------1--------------3-----------1--
G|--------------------------4-----------------------4--------------2--------------2-----------0--
D|--------------------------4-----------------------5--------------2--------------0-----------2--
A|--------------------------2-----------------------5--------------0--------------------------3--
E|--------------------------------------------------3--------------------------------------------

                      D        C                             Bm                         G     
E|--------------------2--------0-----------------------------2--------------------------3-----
B|--------------------3--------1-----------------------------3--------------------------3-----
G|--------------------2--------0-----------------------------4--------------------------4-----
D|--------------------0--------2-----------------------------4--------------------------5-----
A|-----------------------------3-----------------------------2--------------------------5-----
E|--------------------------------------------------------------------------------------3-----

             Am          D           Dm                   G                                   
E|-----------0-----------2-----------1--------------------3-----------------------------------
B|-----------1-----------3-----------3--------------------3-----------------------------------
G|-----------2-----------2-----------2--------------------4-----------------------------------
D|-----------2-----------0-----------0--------------------5-----------------------------------
A|-----------0--------------------------------------------5-----------------------------------
E|--------------------------------------------------------3-----------------------------------

       C              F                    C        G     
E|-----0--------------1--------------------0--------3-----
B|-----1--------------1--------------------1--------3-----
G|-----0--------------2--------------------0--------4-----
D|-----2--------------3--------------------2--------5-----
A|-----3--------------3--------------------3--------5-----
E|--------------------1-----------------------------3-----

tabs and chords, guitar tabs, music transcription, music technology, deep learning, music information retrieval, transcribe into tabs & chords, chordify, music renditions, songsterr, reverbnation, tabulature, bollywood chords, ultimate guitar, yousician, guitar lessons, acoustic guitar, electric guitar, guitar tuner, 911 tabs