Guitar Tabs for Zarurat - Ek Villain Tabs

Tabs for Song : Zarurat

ye dil tanhan kyon rahe 
E|-----------------------------------
B|-----------------------------------
G|-----------------1-----------------
D|-----1-----3--4--------3--4--3-----
A|--1--------------------------------
E|-----------------------------------

kyon hum tukdo mein jiye
E|-----------------------------------
B|-----------------------------------
G|-----------------1-----------------
D|-----1-----3--4--------3--4--3-----
A|--1--------------------------------
E|-----------------------------------

ye dil tanhan kyon rahe
E|-----------------------------------
B|-----------------------------------
G|-----------------1-----------------
D|-----1-----3--4--------3--4--3-----
A|--1--------------------------------
E|-----------------------------------

kyon hum tukdo mein jiye
E|-----------------------------------
B|-----------------------------------
G|-----------------1-----------------
D|-----1-----3--4--------3--4--3-----
A|--1--------------------------------
E|-----------------------------------

kyon ruh meri ye sahe
E|-----------------------------------
B|-----0-----2--0-----------0--------
G|-----------------3--1--------3-----
D|--1--------------------------------
A|-----------------------------------
E|-----------------------------------

mein adhoora jee raha hu
E|-----1--1--------------------------------------
B|-----------4--4--------0--2--4--2--0-----------
G|--3--------------3--------------------3--1-----
D|-----------------------------------------------
A|-----------------------------------------------
E|-----------------------------------------------

khud per hi ek saza hu
E|-----1--1-----------------------------------------
B|--------------4--4--------0--2--4--2--0-----------
G|--3-----------------3--------------------3--1-----
D|--------------------------------------------------
A|--------------------------------------------------
E|--------------------------------------------------

mujhe teri zarurat hai
E|-----4--4--2--2--1--------------------
B|--------------------4--------2--0-----
G|--3--------------------3--3-----------
D|--------------------------------------
A|--------------------------------------
E|--------------------------------------

mujhe teri zarurat hai
E|--------------1--1--1--1-----------
B|-----0--2--2--------------0--------
G|--3--------------------------3-----
D|-----------------------------------
A|-----------------------------------
E|-----------------------------------

andhero se tha mera rishta bada
E|-----------------------------------------
B|--4--4--4--3--4-----------0--0-----0-----
G|--------------------1--3--------3--------
D|-----------------------------------------
A|-----------------------------------------
E|-----------------------------------------

tune hi ujalon se wakif kiya
E|-----------------------1--------------------
B|--0--2-----2--4-----4-----2--0--2--0--------
G|--------------------------------------3-----
D|--------------------------------------------
A|--------------------------------------------
E|--------------------------------------------

ab lauta mein hu in andhero mein fir
E|-----------------------------------------
B|--4--4--4--3--4-----------0--0-----0-----
G|--------------------1--3--------3--------
D|-----------------------------------------
A|-----------------------------------------
E|-----------------------------------------

to paya hai khud ko begana yaha
E|-----------------------1--------------------
B|--0--2-----2--4-----4-----2--0--2--0--------
G|--------------------------------------3-----
D|--------------------------------------------
A|--------------------------------------------
E|--------------------------------------------

tanhayi bhi mujhse khafa ho gayi 
E|--------------------------------------------
B|--------0--0--2--4--4--2--0--2--0-----------
G|--1--3--------------------------------3-----
D|--------------------------------------------
A|--------------------------------------------
E|--------------------------------------------

bajaro ne bhi thukra diya
E|-----------------------------------
B|-----4--3-----3--0--------0--------
G|--3-----------------3--------3-----
D|-----------------------3-----------
A|-----------------------------------
E|-----------------------------------

mein adhora jee raha hu
E|-----1--1--------------------------------------------
B|--------------4--4--------0--2--4--2--0--------------
G|--3--------------------3--------------------3--1-----
D|-----------------------------------------------------
A|-----------------------------------------------------
E|-----------------------------------------------------

khud per hi ek saza hu
E|-----1--1--------------------------------------
B|--------------4--4--------0--2--4--2--0--------
G|--3--------------------3-----------------3-----
D|-----------------------------------------------
A|-----------------------------------------------
E|-----------------------------------------------

mujhe teri zarurat hai
E|-----4--4--2--2--1--------------------
B|--------------------4--------2--0-----
G|--3--------------------3--3-----------
D|--------------------------------------
A|--------------------------------------
E|--------------------------------------

mujhe teri zarurat hai
E|-----------------1--1--1--1-----------
B|-----0--2--2-----------------0--------
G|--3-----------------------------3-----
D|--------------------------------------
A|--------------------------------------
E|--------------------------------------
tabs and chords, guitar tabs, music contests, music covers, songsterr, reverbnation, renditions, tabulature, bollywood chords, ultimate guitar, yousician, guitar lessons, torrins, fender, gibson, acoustic guitar, electric guitar, youtube covers, gootar, guitar tuner, A-Z tabs, 911 tabs