Guitar Tabs for Galiyan - Ek Villain Tabs

(/) Slide Up  (\) Slide Down  (h) Hammer On  (p) Pull Off  (b) Bend (r) Release (v) Vibrato

Tabs for Song :Teri Galiyan

yahin doobe din mere
E|--------------------------
B|--------------1--2--2-----
G|--3--3-----3--------------
D|--------3-----------------
A|--------------------------
E|--------------------------

yahin hote hai sawere
E|-----------------------------
B|--------------1--2--2--2-----
G|--3--3-----3-----------------
D|--------3--------------------
A|-----------------------------
E|-----------------------------

yahin marna aur jeena
E|--------------------------
B|--------------1--2--2-----
G|--3--3-----3--------------
D|--------3-----------------
A|--------------------------
E|--------------------------

yahin mandir ar madeena
E|--------------------------1--------
B|--------------1--1--2--2-----4-----
G|--3--3-----3-----------------------
D|--------3--------------------------
A|-----------------------------------
E|-----------------------------------

tere galiyan ,galiyan teri galiya
E|-----------------------------------------------------
B|-----1--1--2--2-----2--2--2--1--------------1--1-----
G|--3-----------------------------3--1--3--3-----------
D|-----------------------------------------------------
A|-----------------------------------------------------
E|-----------------------------------------------------

yun tadpawe galiyan teri galiyan
E|--------------------------------------------------
B|--------------1--1--------1--1-----1--1--2--2-----
G|--1--1--3--3-----------3--------3-----------------
D|--------------------------------------------------
A|--------------------------------------------------
E|--------------------------------------------------
tabs and chords, guitar tabs, music contests, music covers, songsterr, reverbnation, renditions, tabulature, bollywood chords, ultimate guitar, yousician, guitar lessons, torrins, fender, gibson, acoustic guitar, electric guitar, youtube covers, gootar, guitar tuner, A-Z tabs, 911 tabs