Guitar Tabs for Banjaara - Ek Villain Tabs

Tabs for Song : banjara (ek villain)

guitar leads
E|--0-----0-----------------------------------------
B|-----------4-----2-----0-----0--------------------
G|-----1--------1-----1-----1-----1--2--1--2--1-----
D|--------------------------------------------------
A|--------------------------------------------------
E|--------------------------------------------------

jise jindgi dhundh rahi h
E|--------------------------------------------
B|--------0-----2--4--2-----0-----0-----------
G|--1--2-----------------------2-----2--1-----
D|--------------------------------------------
A|--------------------------------------------
E|--------------------------------------------

kya wo makaam mera h
E|--------------------------------------------
B|--------0-----2--4--2-----0-----0-----------
G|--1--2-----------------------2-----2--1-----
D|--------------------------------------------
A|--------------------------------------------
E|--------------------------------------------

yaha chain se bas ruk jau
E|--------------------------------------------
B|--------0-----2--4--2-----0-----0-----------
G|--1--2-----------------------2-----2--1-----
D|--------------------------------------------
A|--------------------------------------------
E|--------------------------------------------

kyki dil ye mujhe kahta h
E|--------------------------------0-----------
B|--------0-----2--4--2-----2--0-----4--4-----
G|--1--2--------------------------------------
D|--------------------------------------------
A|--------------------------------------------
E|--------------------------------------------

zazbaat naye se mere h

E|--------2-----2-----------------------------
B|--4--5-----------5--4-----4--2--5-----4-----
G|--------------------------------------------
D|--------------------------------------------
A|--------------------------------------------
E|--------------------------------------------

jane kya aser ye hua h

E|--------2-----2-----------------------------
B|--4--5-----------5--4-----4--2--5-----4-----
G|--------------------------------------------
D|--------------------------------------------
A|--------------------------------------------
E|--------------------------------------------
ek aas mili fir mujhko 

E|--------------------------------------------
B|--2--4--5-----5--4--2-----2--0--4--2--2-----
G|--------------------------------------------
D|--------------------------------------------
A|--------------------------------------------
E|--------------------------------------------
jo kabol kisi ne kiya h

E|--------------------------------------------
B|-----0--2-----2--0--------------------------
G|--2-----------------2--1--1-----2--1--1-----
D|-----------------------------4--------------
A|--------------------------------------------
E|--------------------------------------------
kisi shayar ki gazal

E|-----------------------------------
B|-----------------------------------
G|--1--1--2--------------------------
D|--------------4--2--4--2--1--------
A|-----------------------------4-----
E|-----------------------------------
jo de ruh ko sukun ke pal

E|-----------------------------------
B|-----------------------------------
G|--1--1--2--------------------------
D|--------------4--2--4--2--1--------
A|-----------------------------4-----
E|-----------------------------------
koi mujhko yun mila h

E|--------------------------------------------------
B|--------------------------------------------------
G|--------------------------------------------------
D|--------1--1-----1--------------1--1-----1--------
A|-----2--------------4--2-----2--------------4--2--
E|--------------------------------------------------
jese banjare ko ghar

E|-----------------------------------
B|-----------------------------------
G|-----------------------------------
D|--------1--1-----1--2--1-----------
A|-----2-----------------------4--4--
E|-----------------------------------
tabs and chords, guitar tabs, music transcription, music technology, deep learning, music information retrieval, transcribe into tabs & chords, chordify, music renditions, songsterr, reverbnation, tabulature, bollywood chords, ultimate guitar, yousician, guitar lessons, acoustic guitar, electric guitar, guitar tuner, 911 tabs