Guitar Tabs for Zara Si Dil Mein De Jagah Tu

(/) Slide Up  (\) Slide Down  (h) Hammer On  (p) Pull Off  (b) Bend (r) Release (v) Vibrato (x) Muted

Tabs for Song : 
e|--------------------------------------------------------------------------------
b|--------7--10-7--10-7--10-10/12-10-7--------------7--10-7--10-7--10-10/12----10-
g|--7--9--------------------------------9-----7--9--------------------------------
D|--------------------------------------------------------------------------------
A|--------------------------------------------------------------------------------
E|--------------------------------------------------------------------------------

e|-----------------------------------9--10--9h10p9-----------------------------------------------
b|--------7--10-7--10-7--10-10/12----------------------10\7-----------7--10-7--10-7--10-10/12----
g|--7--9--------------------------------------------------------7--9-----------------------------
D|-----------------------------------------------------------------------------------------------
A|-----------------------------------------------------------------------------------------------
E|-----------------------------------------------------------------------------------------------

e|-----------------------------------------------------------------------------------
b|-----------------------------------------------------------------------------------
g|--7--7--7---7\6--6--------------------------7--6--7---7/9--9--7--6---6h-7p6--------
d|-----------------------9--7---7/-9\7--5-----------------------------------------9--
A|-----------------------------------------------------------------------------------
E|-----------------------------------------------------------------------------------

e|-----------------------------------------------------------------------------------
b|-----------------------------------------------------------------------------------
g|--7--7--7---7\6--6--------------------------7--6--7---7/9--9--7--6---6h-7p6--------
d|-----------------------9--7---7/-9\7--5-----------------------------------------9--
A|-----------------------------------------------------------------------------------
E|-----------------------------------------------------------------------------------

e|-----------------------------------------------------------------------------------------------------
b|-----------------------------------------------------------------------------------------------------
g|--7--6--------------7---7/9--9--7--6---6h-7p6--------7--6--------------7---7/9--9--7--6---6h-7p6-----
d|-----------9--5--5--------------------------------9--------9--5--5--------------------------------9--
A|-----------------------------------------------------------------------------------------------------
E|-----------------------------------------------------------------------------------------------------

e|-----------------------------------------------------------------------------------------
b|--7--10----------7-----------------------7-----7--10----------7--------------------------
g|-----------7--9-----9-----7--6--7-----9-----9-----------7--9-----9-----7--6--7--6--------
d|-----------------------------------------------------------------------------------9--7--
A|-----------------------------------------------------------------------------------------
E|-----------------------------------------------------------------------------------------

e|-----------------------------------------------------------------------------------------
b|--7--10----------7-----------------------7-----7--10----------7--------------------------
g|-----------7--9-----9-----7--6--7-----9-----9-----------7--9-----9-----7--6--7--6--------
d|-----------------------------------------------------------------------------------9--7--
A|-----------------------------------------------------------------------------------------
E|-----------------------------------------------------------------------------------------

e|-----------------------------------------------------------------------------------------------
b|--------7--------7--7--7--10-10\7--------7--------------------7------------------------8p7-----
g|--7--9-----7--9--------------------9--9-----9--7--6--7--7--7-----9-----7--6--7--7--7--------9--
D|-----------------------------------------------------------------------------------------------
A|-----------------------------------------------------------------------------------------------
E|-----------------------------------------------------------------------------------------------

e|--------------------------------------------------------------------------------------------------
b|--------7--------7--7--7--10-10\7--------7---------------------8p7------------------------8p7-----
g|--7--9-----7--9--------------------9--9-----9--7--6--7--7--7--------9-----7--6--7--7--7--------9--
D|--------------------------------------------------------------------------------------------------
A|--------------------------------------------------------------------------------------------------
E|--------------------------------------------------------------------------------------------------

e|-----------------------------------------------------------------------------------------------------
b|-----------------------------------------------------------------------------------------------------
g|--7--6--------------7---7/9--9--7--6---6h-7p6--------7--6--------------7---7/9--9--7--6---6h-7p6-----
d|-----------9--5--5--------------------------------9--------9--5--5--------------------------------9--
A|-----------------------------------------------------------------------------------------------------
E|-----------------------------------------------------------------------------------------------------

e|-----------------------------------------------------------------------------------------
b|--7--10----------7-----------------------7-----7--10----------7--------------------------
g|-----------7--9-----9-----7--6--7-----9-----9-----------7--9-----9-----7--6--7--6--------
d|-----------------------------------------------------------------------------------9--7--
A|-----------------------------------------------------------------------------------------
E|-----------------------------------------------------------------------------------------

e|-----------------------------------------------------------------------------------------
b|--7--10----------7-----------------------7-----7--10----------7--------------------------
g|-----------7--9-----9-----7--6--7-----9-----9-----------7--9-----9-----7--6--7--6--------
d|-----------------------------------------------------------------------------------9--7--
A|-----------------------------------------------------------------------------------------
E|-----------------------------------------------------------------------------------------

Song lyrics here
E|--
B|--
G|--
D|--
A|--
E|--

Song lyrics here
E|--
B|--
G|--
D|--
A|--
E|--

Paste any tab in acousterr's tab maker and we'll play it !!!
Now supports capo and sound effects for vibrato/pull-off/hammer/bends/mutes etc !!! Checkout help section
tabs and chords, guitar tabs, music contests, music covers, songsterr, reverbnation, renditions, tabulature, bollywood chords, ultimate guitar, yousician, guitar lessons, torrins, fender, gibson, acoustic guitar, electric guitar, youtube covers, gootar, guitar tuner, A-Z tabs, 911 tabs