Guitar Tabs for Tu Hi Tu Har Jagah - Kick Tabs

(/) Slide Up  (\) Slide Down  (h) Hammer On  (p) Pull Off  (b) Bend (r) Release (v) Vibrato

Tabs for Song : Tu Hi Tu Har Jagah

Intro
E|--------9--10-9--------------9--10-9--------------9--10-9-----------------
B|--10-12----------12-12-10-12----------12-12-10-12----------12-12-12-10-10-
G|--------------------------------------------------------------------------
D|--------------------------------------------------------------------------
A|--------------------------------------------------------------------------
E|--------------------------------------------------------------------------

Tu Hi Tu Har Jagah, Aaj Kal Kyun Hai
E|--9--9--------------------------------------
B|--------12-10/12h-10-10-10-9--10----9-10/12-
G|--------------------------------11----------
D|--------------------------------------------
A|--------------------------------------------
E|--------------------------------------------

Raaste Har Dafaa, Sirf Tera Pataa
E|--------------------------------------------------
B|--10-10-10-12/14-12----------10-10-10-12/14-12-12-
G|--------------------14-13\11----------------------
D|--------------------------------------------------
A|--------------------------------------------------
E|--------------------------------------------------

Mujhse Pooche Bhala Kyun Hai
E|-----------------------------------
B|--10-10-10-12/14-12----------12-10-
G|--------------------14-13\11-------
D|-----------------------------------
A|-----------------------------------
E|-----------------------------------

Naa Main Apna Raha
E|--9--12-12/14-14-16-14\12p
B|--------------------------
G|--------------------------
D|--------------------------
A|--------------------------
E|--------------------------

Naa Kisi Aur Ka
E|--9--12-12/14-14/17-16-14\12-
B|-----------------------------
G|-----------------------------
D|-----------------------------
A|-----------------------------
E|-----------------------------

Aisa Mere Khuda Kyun Hai
E|--9--12-12/14-14-16-14\12p-9----
B|-----------------------------12-
G|--------------------------------
D|--------------------------------
A|--------------------------------
E|--------------------------------

O.. O.. O..

E|---7/-9h7-----------
B|-----------10--9/10-
G|--------------------
D|--------------------
A|--------------------
E|--------------------

O.. O.. O..
E|---7/9h-7-----7--
B|-----------10----
G|-----------------
D|-----------------
A|-----------------
E|-----------------

O.. O.. O..
E|---7/9h-7-----------
B|-----------10--9/10h
G|--------------------
D|--------------------
A|--------------------
E|--------------------

Again Repeat Part 1.
tabs and chords, guitar tabs, music transcription, music technology, deep learning, music information retrieval, transcribe into tabs & chords, chordify, music renditions, songsterr, reverbnation, tabulature, bollywood chords, ultimate guitar, yousician, guitar lessons, acoustic guitar, electric guitar, guitar tuner, 911 tabs