Guitar Tabs for Zara Tasveer Se Tu / Meri Mehbhooba

(/) Slide Up  (\) Slide Down  (h) Hammer On  (p) Pull Off  (b) Bend (r) Release (v) Vibrato (x) Muted

E|-----------------------------------------
B|-----------------------------------------
g|-----2--5--4--2--4--------1--4--2--1--2--
d|--2--------------------2-----------------
A|-----------------------------------------
E|-----------------------------------------

E|-----------------------------------------
B|-----------------------------------------
g|-----2--5--4--2--4--------1--4--2--1--2--
d|--2--------------------2-----------------
A|-----------------------------------------
E|-----------------------------------------


E|-----------------------------------------
B|-----------------------------------------
g|-----2--5--4--2--4--------1--4--2--1--2--
d|--2--------------------2-----------------
A|-----------------------------------------
E|-----------------------------------------


E|-----------------------------------------------
b|-----------5--3--2--3--------------5--3--2--3--
g|--2--5--------------------2--5-----------------
D|-----------------------------------------------
A|-----------------------------------------------
E|-----------------------------------------------



E|-----------------------------------------------
b|--5--3--------3-----------3--------------------
g|--------5--4-----5--5-----------5--4--2--2--4--
D|-----------------------------------------------
A|-----------------------------------------------
E|-----------------------------------------------


E|-----------------------------------------------------
B|-----------------------------------------------------
g|-----2--4---4/5--4--2--4--------2--4---4/5--4--2--4--
d|--2--------------------------2-----------------------
A|-----------------------------------------------------
E|-----------------------------------------------------


E|-----------------------
B|-----------------------
g|--1--1---1h2---2/4--2--
D|-----------------------
A|-----------------------
E|-----------------------
      

E|-----------------------------------------------------
B|-----------------------------------------------------
g|-----2--4---4/5--4--2--4--------2--4---4/5--4--2--4--
d|--2--------------------------2-----------------------
A|-----------------------------------------------------
E|-----------------------------------------------------


E|-----------------------
B|-----------------------
g|--1--1---1h2---2/4--2--
D|-----------------------
A|-----------------------
E|-----------------------


E|-----------------------------------------------------------------------
b|--5--3---------3/5--3-----5--3-----------------------------------------
g|--------5--5-----------------------5--4---5/7--5--7--5--4--2---4/5--2--
D|-----------------------------------------------------------------------
A|-----------------------------------------------------------------------
E|-----------------------------------------------------------------------


E|-----------------------------------------------
B|-----------------------------------------------
g|--1--2--4--1---2/4--2--4--1--2--4--1---2/4--2--
D|-----------------------------------------------
A|-----------------------------------------------
E|-----------------------------------------------


E|-----------------------------------------------------------------------
b|-----------------------------------------------------------6--3---3/5--
g|--2--4---4/5--5--5--1--2---2/4--4--4--4--5---5/7--7--7-----------------
D|-----------------------------------------------------------------------
A|-----------------------------------------------------------------------
E|-----------------------------------------------------------------------


Paste any tab in acousterr's tab maker and we'll play it !!!
Now supports capo and sound effects for vibrato/pull-off/hammer/bends/mutes etc !!! Checkout help section
tabs and chords, guitar tabs, music transcription, music technology, deep learning, music information retrieval, transcribe into tabs & chords, chordify, music renditions, songsterr, reverbnation, tabulature, bollywood chords, ultimate guitar, yousician, guitar lessons, acoustic guitar, electric guitar, guitar tuner, 911 tabs