Guitar Tabs for With

(/) Slide Up  (\) Slide Down  (h) Hammer On  (p) Pull Off  (b) Bend (r) Release (v) Vibrato (x) Muted


E|--------------------------------------------------------------------------------------------------------------------------------------------------
B|--------------------------------------------------------------------------------------------------------------------------------------------------
G|--6--------6--------6--------6--------6--------6--------6--------6--------6--------6--------6--------6--------6--------6--------6--------6--------
D|-----6--------6--------6--------6--------5--------5--------5--------5--------6--------6--------6--------6--------7--------7--------7--------7-----
A|--------7--------7--------7--------7--------7--------7--------7--------7--------7--------7--------7--------7--------7--------7--------7--------7--
E|--------------------------------------------------------------------------------------------------------------------------------------------------

E|--------------------------------------------------------------------------------------------------------------------------------------------------
B|--------------------------------------------------------8-----------------------------------------------------------------------------------------
G|--------------10-9--7-----------------------------10-9--------7-----9-----------------10-9--7------------------------------------------9h10p9--7--
D|-----------9--------------8-----9--------------9-----------------------------------9--------------8-----9------------9h10p9--7--------------------
A|--7-----------------------------------7-----------------------------------7-----------------------------------7-----------------10----------------
E|--------------------------------------------------------------------------------------------------------------------------------------------------

E|--------------------------------------------------------------------------------------------------
B|--------------------------------------------------------------------------------------------------
G|--------------------------------------------------------------------------------------------------
D|--9--9--9--9--9--9--9--9--------------------------9--9--9--9--9--9--9--9--------------------------
A|--7--7--7--7--7--7--7--7--9--9--9--9--12-12-12-12-7--7--7--7--7--7--7--7--9--9--9--9--9--9--9--9--
E|--0--0--0--0--0--0--0--0--10-10-10-10-10-10-10-10-0--0--0--0--0--0--0--0--10-10-10-10-7--7--7--7--

E|--------------------------------------------------------------------------------------------------
B|--------------------------------------------------------------------------------------------------
G|--------------------------------------------------------------------------------------------------
D|--9--9--9--9--9--9--9--9--------------------------9--9--9--9--9--9--9--9--------------------------
A|--7--7--7--7--7--7--7--7--9--9--9--9--12-12-12-12-7--7--7--7--7--7--7--7--9--9--9--9--9--9--9--9--
E|--0--0--0--0--0--0--0--0--10-10-10-10-10-10-10-10-0--0--0--0--0--0--0--0--10-10-10-10-7--7--7--7--

E|-----------------------------------------------------------------------------------------------------------------------------------------------
B|-----------------------------------------------------------------------------------------------------------------------------------------------
G|--2-----2-----2-----2-----2-----2-----------------------------------------2-----2-----2-----2-----2-----2-----5-----5-----7-----9-----9-----9--
D|--2-----2-----2-----2-----2-----2-----2-----2-----2-----1-----1-----1-----2-----2-----2-----2-----2-----2-----5-----5-----7-----9-----9-----9--
A|--0-----0-----0-----0-----0-----0-----3-----3-----3-----2-----2-----2-----0-----0-----0-----0-----0-----0-----3-----3-----5-----7-----7-----7--
E|-----------------------------------------------------------------------------------------------------------------------------------------------

E|-----------------------------------------------------------------------------------------------------------------------------------------------
B|-----------------------------------------------------------------------------------------------------------------------------------------------
G|--2-----2-----2-----2-----2-----2-----------------------------------------2-----2-----2-----2-----2-----2-----5-----5-----7-----9-----9-----9--
D|--2-----2-----2-----2-----2-----2-----2-----2-----2-----1-----1-----1-----2-----2-----2-----2-----2-----2-----5-----5-----7-----9-----9-----9--
A|--0-----0-----0-----0-----0-----0-----3-----3-----3-----2-----2-----2-----0-----0-----0-----0-----0-----0-----3-----3-----5-----7-----7-----7--
E|-----------------------------------------------------------------------------------------------------------------------------------------------




tabs and chords, guitar tabs, music transcription, music technology, deep learning, music information retrieval, transcribe into tabs & chords, chordify, music renditions, songsterr, reverbnation, tabulature, bollywood chords, ultimate guitar, yousician, guitar lessons, acoustic guitar, electric guitar, guitar tuner, 911 tabs