Guitar Tabs for Nothing

(/) Slide Up  (\) Slide Down  (h) Hammer On  (p) Pull Off  (b) Bend (r) Release (v) Vibrato (x) Muted


E|--------------------------------------------
B|--------------------------------------------
G|--------------------------------------------
D|--7-----7-----10-9--7--7-----7-----10-9--7--
A|-----7-----7--------------7-----7-----------
E|--------------------------------------------

E|--------------------------------------------
B|--------------------------------------------
G|--------------------------------------------
D|-----------------------------------------9--
A|--8-----8-----12-10-8--8-----8-----10-12----
E|-----8-----8--------------8-----8-----------

E|--------------------------------------------------------------------------------------
B|--------------------------------------------------------------------------------------
G|--------------------------------------------------------------------------------------
D|--7-----7-----10-9--7--7-----7-----10-9--7--------------------------------------------
A|-----7-----7--------------7-----7-----------8-----8-----12-10-8--10----10----14-12-10-
E|-----------------------------------------------8-----8--------------10----10----------

E|--------------------------------------------
B|--------------------------------------------
G|-----9--------------------------9-----------
D|--7-----9--10-5--7--9--10-9--7-----9--10-5--
A|--------------------------------------------
E|--------------------------------------------
tabs and chords, guitar tabs, music transcription, music technology, deep learning, music information retrieval, transcribe into tabs & chords, chordify, music renditions, songsterr, reverbnation, tabulature, bollywood chords, ultimate guitar, yousician, guitar lessons, acoustic guitar, electric guitar, guitar tuner, 911 tabs