Guitar Tabs for Nothing

(/) Slide Up  (\) Slide Down  (h) Hammer On  (p) Pull Off  (b) Bend (r) Release (v) Vibrato (x) Muted


E|-----------------------------------------------------------------------------------------------------------------------------------------------------
B|-----------------------------------------------------------------------------------------------------------------------------------------------------
G|-----------------------------------------------------------------------------------------------------------------------------------------------------
D|--10----10-10-10-10-10----10-10-10-10-10----10-10-10-10-10----10-10-10-10-9-----9--9--9--9--9-----9--9--9--9--9-----9--9--9--9--9-----9--9--9--9--9--
A|--12----12-12-12-12-12----12-12-12-12-12----12-12-12-12-12----12-12-12-12-10----10-10-10-10-10----10-10-10-10-7-----7--7--7--7--7-----7--7--7--7--7--
E|-----------------------------------------------------------------------------------------------------------------------------------------------------

E|--
B|--
G|--
D|--
A|--
E|--

Guitar Tabs for Nothing



E|--------------------12----------------------------------12----------------------------------------------------------------------------------------------------
B|--13----10----13----------13----10----13----10----13----------13----10----12----------12----15----12----------12----------12----15----13----12----------------
G|--------------------------------------------------------------------------------12----------------------12----------12----------------------------------------
D|--------------------------------------------------------------------------------------------------------------------------------------------------------------
A|--------------------------------------------------------------------------------------------------------------------------------------------------------------
E|--------------------------------------------------------------------------------------------------------------------------------------------------------------



tabs and chords, guitar tabs, music transcription, music technology, deep learning, music information retrieval, transcribe into tabs & chords, chordify, music renditions, songsterr, reverbnation, tabulature, bollywood chords, ultimate guitar, yousician, guitar lessons, acoustic guitar, electric guitar, guitar tuner, 911 tabs