Witchblades - Bass Tabs

(/) Slide Up  (\) Slide Down  (h) Hammer On  (p) Pull Off  (b) Bend (r) Release (v) Vibrato (x) Muted

Tabs for Song : 
BPM : 144

Song lyrics here 
F|--(intro)     
C|--(money posse
G|--     ||
C|--     \/

F|--------------------------------------------------
C|--------7-----------------------------------------     (can't really make the slides sound good
G|-------------------------------------------------- (a)     but try to match the slide sound in the song)
C|---7r7---------0r-0/12r12-12-12-12-12\7---7r7-----

F|--------------------------------------------------      [play (a) twice,then alternate between
C|--------7-----------------------------------------      (a) and (b)] :
G|-------------------------------------------------- (b)      a-a-b-a-b
C|---7r7---------0r0--------------------------------

F|--------------------------------------------------
C|---7r7--------12r12-------15r15-------------------
G|-------------------------------------------------- (x)
C|---7r7--------12r12-------15r15-------------------

F|--------------------------------------------------
C|---7r7--------12r12-------15r15-------10r10-------
G|-------------------------------------------------- (y)
C|---7r7--------12r12-------15r15-------10r10-------

F|--------------------------------------------------
C|--------7-----------------------14-12----12r12----
G|-----------------------------------------------12-
C|---7r7--------12r12-------15r15-------10----------

F|--------------------------------------------------
C|--------------------------15r15-14-------12-------
G|-----------------------------------15r15----------
C|--7-----------------------------------------------

F|--------------------------------------------------
C|---7r7--------12r12-------15r15-------10r10-------
G|--------------------------------------------------
C|---7r7--------12r12-------15r15-------10r10-------

F|-----------------------------------------------------
C|---7r7--------12r12-------15-------------------------
G|-----------------------------------------------------
C|---7r7--------12r12-------15-------------------------

F|--------------------------------------------------
C|---7r7--------------------------------------------
G|--------------------------------------------------
C|---7r7---------0r-0/12r12-12-12-12-12-------------

F|-----------------------------------------------------
C|---7r7--------12-------------------------------------
G|-----------------------------------------------------
C|---7r7--------12-------12-12-12-12-12-12\7---7r7-----

F|--------------------------------------------------
C|---7r7--------------------------------------------
G|--------------------------------------------------
C|---7r7---------0r-0/12r12-12-12-12-12\7---7r7-----

F|-----------------------------------------------------
C|---7r7-----------------------------------------------
G|-----------------------------------------------------
C|---7r7-----------------12-12-12-12-------------------

F|--------------------------------------------------
C|---7r7--------12r12-------15r15-------10----------
G|--------------------------------------------------   (x2)
C|---7r7--------12r12-------15r15-------10----------

F|--------------------------------------------------
C|--------------------15-14-------14----------12----
G|-----------------------------------15-12r12----12-
C|--------------------------15r15-------------------

F|--------------------------------------------------
C|--------7-----------15-14r14----------------------
G|--------------------------------------------------
C|---7r7--------12r12-------------------------------

F|--------------------------------------------------
C|---7r7--------12r12-------15r15-------10r10-------
G|--------------------------------------------------
C|---7r7--------12r12-------15r15-------10r10-------

F|--------------------------------------------------
C|---7r7--------12----------------------------------
G|--------------------------------------------------
C|---7r7--------12----------------------------------

Song lyrics here 
F|--
C|--
G|--
C|--

Use manual mode to free up cursor. Paste any tab in acousterr tab maker and we'll play it !!!
tabs and chords, guitar tabs, music transcription, music technology, deep learning, music information retrieval, transcribe into tabs & chords, chordify, music renditions, songsterr, reverbnation, tabulature, bollywood chords, ultimate guitar, yousician, guitar lessons, acoustic guitar, electric guitar, guitar tuner, 911 tabs