Guitar Tabs for Spring Day Bts

(/) Slide Up  (\) Slide Down  (h) Hammer On  (p) Pull Off  (b) Bend (r) Release (v) Vibrato (x) Muted

Tabs for Song :Capo on 3rd Fret




Song lyrics here
E|-----0--0--0--0--------------------------------------0--0--0--0--------------------------------------0--0--0--0--
B|-----1--1--1--1--3--3--3--3--1--1--1--1--1--1--1-----1--1--1--1--3--3--3--3--1--1--1--1--3--3--3-----1--1--1--1--
G|--0--------------0--0--0--0--0--0--0--0--2--2--2--2--------------2--2--2--2--2--2--2--2--2--2--2--0--------------
D|-----------------------------------------------------------------------------------------------------------------
A|--3-----------------------2-----------------------0-----------------------------------------------3--------------
E|--------------------------------------------------------------------------1--------------------------------------

Song lyrics here
E|--------------------------------------0--0--0--0-----------------------------------------x--------x--------0--0--x--
B|--3--3--3--3--1--1--1--1--1--1--1-----1--1--1--1--3--3--3--3--1---------1h3--1-----1-----x--1-----x--------------x--
G|--0--0--0--0--0--0--0--0--2--2--2--2--------------2--2--2--2--2-----------------2-----0--x-----0--x--0--0--------x--
D|-----------------------------------------------------------------------------------3-----x--3-----x--------------x--
A|-----------2-----------------------0-----------------------------------------------------x--------x--------2-----x--
E|-----------------------------------------------------------1-----------------------------x--------x--------------x--

E|--------------x--------------x--------x--------0--1--x-----------x--------------x--------------------------x--------
B|--3--3---1h3--x--1-----1-----x--1-----x--------------x--3---1h3--x--1-----1-----x--1--1---1h3--1-----1-----x--1--1--
G|--------------x-----2-----0--x-----0--x--0--0--------x-----------x-----2-----0--x-----------------2-----0--x--------
D|--------------x--------------x--------x--------------x-----------x--------------x--------------------------x--------
A|-----2--------x--------0-----x--0-----x--------------x-----------x--------3-----x--3-----------------2-----x--2-----
E|--------------x--------------x--------x--------0-----x-----------x--------------x--------------------------x--------

E|--------------0--0--x--0--0--0--0--x--------------x--------x-----0--x--0--0-----x--------------x-----------x--------
B|---1h3--1-----------x--------------x--3--3--3--3--x--1--1--x--------x--------3--x--3--3--3--1--x--1--1-----x--------
G|-----------0--------x--------------x--------------x--------x--0-----x-----------x--0-----------x--------2--x--2--2--
D|--------------------x--------------x--------------x--------x--------x-----------x--------------x-----------x--------
A|--------------0-----x--------0-----x--------------x--------x--3-----x-----3-----x--------2-----x-----2-----x-----0--
E|--------------------x--------------x-----1--------x--1--1--x--------x-----------x--------------x-----------x--------

E|--0--x--0--------x-----------x-----------x--------------x--------3--3--3--x-----------------x--------------0--0--x--
B|-----x-----0--3--x--3--3--1--x--1--1--3--x--3--1--1--1--x--1--1-----------x--3--3--3--3--3--x--1---1h3-----------x--
G|-----x-----------x-----------x-----------x--2-----------x-----------------x-----------------x-----------0--------x--
D|-----x-----------x-----------x-----------x--------------x-----------------x-----------------x--------------------x--
A|-----x-----------x-----------x-----------x-----3--------x--------3--------x--------2--------x------2h------0-----x--
E|-----x-----0-----x-----1-----x-----1-----x--------------x-----------------x-----------------x--------------------x--

E|--0--0--0--0--x--------------x-----------0--------------------------------------------------------------------0--x--
B|--------------x--3--3--3--3--x--1--1--------1--1--1--1--0------------1h3--1--0------------1h3--0--1-----3--3-----x--
G|--------------x--------------x--------0-----------------------0--0-----------------0--0--------------------------x--
D|--------------x--------------x-----------------------------------------------------------------------------------x--
A|--------0-----x--------------x-----------3-----------------2--------------------0-----------------------------3--x--
E|--------------x-----1--------x--1--1-----------------------------------------------------------------1-----------x--

E|-----------------x-----------x--0-----x--0---0h1--0--x-----------------------------------------x--------------x-----
B|--1---1h3--3-----x--1--1--3--x--------x--------------x--3--3--1---1h3--------------1---3/5--5--x--5--5---1h3--x--3--
G|-----------------x-----------x--------x--------------x-----------------------------------------x--------------x-----
D|-----------------x-----------x--------x--------------x-----------------------------------------x--------------x-----
A|--3-----------2--x-----2-----x-----0--x------0h------x--------------------------------------3--x--3--3--------x--2--
E|-----------------x-----------x--------x--------------x-----1-----------------------------------x--------------x-----

E|-----------x--0--0--x--0--0-----------------------x--0-----x-----------x--------x-----------x--0-----x-----------x--
B|--1--1-----x--------x--------1---1h3--3--1--1-----x-----3--x--1--1-----x--------x--1--1-----x-----3--x--1--1-----x--
G|--------0--x--------x--------------------------2--x--------x--------0--x--0-----x--------0--x--------x--------0--x--
D|-----------x--------x-----------------------------x--------x-----------x-----2--x-----------x--------x-----------x--
A|--2--2-----x--0--0--x--0--0-----------------------x--3-----x--3--3-----x--2-----x--2--2-----x--0-----x--0--0-----x--
E|-----------x--------x-----------------1--1--1-----x--------x-----------x--------x-----------x--------x-----------x--

E|--------x-----0-----x--------------x--------------x--0--0--x--0--0-----------------------x--0-----x-----------x-----
B|--------x--1-----5--x--5--5---1h3--x--3--1--1-----x--------x--------1---1h3--3--1--1-----x-----3--x--1--1-----x-----
G|--0-----x-----------x--------------x-----------0--x--------x--------------------------2--x--------x--------0--x--0--
D|-----2--x-----------x--------------x--------------x--------x-----------------------------x--------x-----------x-----
A|--------x--------3--x--3--3--------x--2--2--2-----x--0--0--x--0--0-----------------------x--3-----x--3--3-----x--2--
E|--1-----x-----------x--------------x--------------x--------x-----------------1--1--1-----x--------x-----------x-----

E|-----x-----------x--0-----x-----------x---------------1h3--3--------0--0--0--0--1--0-----------0-----0--0--0--0--1--
B|-----x--1--1-----x-----3--x--1--1-----x-----------1--------------3--------------------3--3--------3-----------------
G|-----x--------0--x--------x--------0--x--0-----0--------------------------------------------------------------------
D|--2--x-----------x--------x-----------x-----2-----------------------------------------------------------------------
A|-----x--2--2-----x--0-----x--0--0-----x--------------------------3-----3--------3-----------3-----2-----2--------2--
E|-----x-----------x--------x-----------x--1--------------------------------------------------------------------------

E|--0--------------0---1h3--0-----------------------------------------------------------------------------------------
B|-----3--3-----1--------------1--1---1\3--0--------------------0--1---------1h3--3---------0h1--1--------------------
G|-----------------------------------------------0--0--0---0h2-----------2--------------2--------------2---0h1--------
D|-----------------------------------------------------------------------------------------------------------------0--
A|-----------2--------------------------------------------------------------------------------------------------------
E|---------------------0h---------------------1------------1h---------1--------------1--------------1-----------1-----

E|--------------------------------------------------------------------------------------------------------------------
B|-----------------------------------1-----------------0-----------------1-----------------1-----------------1---1h3--
G|--1--0--------------------------0-----------------0-----------------0-----------------0-----------------0-----------
D|-----------------------------2-----------------0-----------------2-----------------3-----------------2--------------
A|--------------------------3-----------------2-----------------0-----------------------------------3-----------------
E|--------------------------------------------------------------------------------1-----------------------------------

E|-----x-----------------------x-----------0--0--1---1h3--1--0-----------------------------x-----------------------x--
B|--3--x-----------1---1h3--3--x--------------------------------3--------------1---1h3--3--x-----------1---1h3--3--x--
G|-----x--------0--------------x--------0-----------------------------------0--------------x--------0--------------x--
D|-----x-----0-----------------x-----2-----------------------------------2-----------------x-----0-----------------x--
A|-----x--2--------------------x--0-----------------------------------3--------------------x--2--------------------x--
E|-----x-----------------------x---------------------1h------------------------------------x-----------------------x--

E|-----------0--0--1---1h3-----------------------------------------0--0--0--0--------------------3--0-----------------
B|--------------------------------1---3\5--5--5--5---1h3--3--1--1--------------1---1h3--3--1--1--------3--1--1--0-----
G|--------0--------------------------------------------------------------------------------------------------------0--
D|-----2--------------------------------------------------------------------------------------------------------------
A|--0--------------------------------------3--------------2-----------0-----------------------------3--------------2--
E|---------------------1h---------------------------------------------------------------1-----------------------------

E|-----------3--3---------------------------0h1--0-----------0--0--0--0--1--0-----------0-----0--0--0--0--1--0--------
B|-----1--1--------3--1--1--0-----------1-----------------3--------------------3--3--------3--------------------3--3--
G|-----------------------------0-----0--------------------------------------------------------------------------------
D|--2-----------------------------2-----------------------------------------------------------------------------------
A|--------------3-----------------------------------------3-----3--------3-----------3-----2-----2--------2-----------
E|-----------------------------1--------------------------------------------------------------------------------------

E|--------0---1h3--0--------------------------------------------------------------------------------------------------
B|-----1--------------1--1---1\3--0--------------------0--1---------0h3--3---------0h1--1-----------------------------
G|--------------------------------------0--0--0---0h2-----------2--------------2--------------2---0h1--1-----0--1--0--
D|--------------------------------------------------------------------------------------------------------------------
A|--2-----------------------------------------------------------------------------------------------------------------
E|------------0h---------------------1------------1h---------1--------------1--------------1--------------1-----------

E|-----------
B|-----------
G|--------0--
D|-----2-----
A|--3--------
E|-----------







Paste any tab in acousterr's tab maker and we'll play it !!!
Now supports capo and sound effects for vibrato/pull-off/hammer/bends/mutes etc !!! Checkout help section
tabs and chords, guitar tabs, music transcription, music technology, deep learning, music information retrieval, transcribe into tabs & chords, chordify, music renditions, songsterr, reverbnation, tabulature, bollywood chords, ultimate guitar, yousician, guitar lessons, acoustic guitar, electric guitar, guitar tuner, 911 tabs