Guitar Tabs for See You Again - Wiz Khalifa Tabs

(/) Slide Up  (\) Slide Down  (h) Hammer On  (p) Pull Off  (b) Bend (r) Release (v) Vibrato

Tabs for Song : See You Again

intro
E|-----5--3-----3--5--7--5--3--5-----5--3-----3--5--7--5--3--5-----5--3-----3--5--7--5--3--5--
B|--3--------3--------------------3--------3--------------------3--------3--------------------
G|--------------------------------------------------------------------------------------------
D|--------------------------------------------------------------------------------------------
A|--------------------------------------------------------------------------------------------
E|--------------------------------------------------------------------------------------------


Its been a long day 
E|-----------0-----0--------
B|-----0--3-----3-----------
G|--0-----------------2-----
D|--------------------------
A|--------------------------
E|--------------------------

without you my friend and i tell you all about it when i see you again
E|--------------------0--3--0-----------------------------
B|-----------0--0--3-----------3--0-----------------0-----
G|--2--2--0--------------------------2--2--0--2--2-----0--
D|--------------------------------------------------------
A|--------------------------------------------------------
E|--------------------------------------------------------

We have come a long way from where we began
E|-----------0-----0--------------------
B|-----0--3-----3--------------------0--
G|--0-----------------2-----2--2--0-----
D|--------------------------------------
A|--------------------------------------
E|--------------------------------------


and i tell you all about it when i see you again
E|--------0--3--5---5/7--5--3--0--3--5--5--3--3-----
B|--0--3--------------------------------------------
G|--------------------------------------------------
D|--------------------------------------------------
A|--------------------------------------------------
E|--------------------------------------------------

when i see you again
E|--0--3--5--5--3--3-----
B|-----------------------
G|-----------------------
D|-----------------------
A|-----------------------
E|-----------------------


tabs and chords, guitar tabs, music contests, music covers, songsterr, reverbnation, renditions, tabulature, bollywood chords, ultimate guitar, yousician, guitar lessons, torrins, fender, gibson, acoustic guitar, electric guitar, youtube covers, gootar, guitar tuner, A-Z tabs, 911 tabs