Guitar Tabs for Witch

(/) Slide Up  (\) Slide Down  (h) Hammer On  (p) Pull Off  (b) Bend (r) Release (v) Vibrato (x) Muted

E|-----------------------------------------------------------------------------------------------------------------------------------------------------------
B|-----------------------------------------------------------------------------------------------------------------------------------------------------------
G|--6--6--6-----------------------------6--6--6-----------------------------6--6--6-----------------------------6--6--6-----------------------------6--6--6--
D|-----------7--7--7-----------7--7--7-----------6--6--6-----------6--6--6-----------7--7--7-----------7--7--7-----------6--6--6-----------6--6--6-----------
A|--------------------9--9--9-----------------------------7--7--7-----------------------------9--9--9-----------------------------7--7--7--------------------
E|-----------------------------------------------------------------------------------------------------------------------------------------------------------

E|-----------------------------------------------------------------------------------------------------------------------------------------------------
B|-----------------------------------------------------------------------------------------------------------------------------------------------------
G|---------------------7\10-10-10-10-----------------------------------7\10-10-10-10-----------------------------------7\10-10-10-10-12-12-10-9--------
D|-----------7--7--7-----------------10-10-------------------7--7--7-----------------10-10-------------------7--7--7-----------------------------10-12-
A|--5--5--5--------------------------------8--8--8--5--5--5--------------------------------8--8--8--5--5--5--------------------------------------------
E|-----------------------------------------------------------------------------------------------------------------------------------------------------

E|--------------------------------------------------------------------------------------------------------------------------------
B|--------------------------------------------------------------------------------------------------------------------------------
G|--6--------6--------6--------6--------6--------6--------6--------6--------6--------6--------6--------6--------6--------6--------
D|-----6--------6--------6--------6--------5--------5--------5--------5--------6--------6--------6--------6--------7--------7-----
A|--------7--------7--------7--------7--------7--------7--------7--------7--------7--------7--------7--------7--------7--------7--
E|--------------------------------------------------------------------------------------------------------------------------------
tabs and chords, guitar tabs, music contests, music covers, songsterr, reverbnation, renditions, tabulature, bollywood chords, ultimate guitar, yousician, guitar lessons, torrins, fender, gibson, acoustic guitar, electric guitar, youtube covers, gootar, guitar tuner, A-Z tabs, 911 tabs