Guitar Tabs for Wipe Out, Sufaris

(/) Slide Up  (\) Slide Down  (h) Hammer On  (p) Pull Off  (b) Bend (r) Release (v) Vibrato (x) Muted

Tabs for Song : 
BPM : 200

Song lyrics here

 
E|--------------------------------------------------------------------------------------------------------
B|--------------------------------------------------------------------------------------------------------
G|--------------------------------------------------------------------------------------------------------
D|------1--2--3--3--3--1--------1--2--3--3--3--1--------1--2--3--3--3--1--------1--2--3--3--3--1----------
A|---3--------------------3--3--------------------3--3--------------------3--3--------------------3-------
E|--------------------------------------------------------------------------------------------------------

E|--------------------------------------------------------------------------------------------------------
B|-----------------------------------------------------------------------------------------------------
G|------1--2--3--3--3--1--------1--2--3--3--3--1-------------------------------------------------------
D|---3--------------------3--3--------------------3-----1--2--3--3--3--1--------1--2--3--3--3--1-------
A|---------------------------------------------------3--------------------3--3--------------------3----
E|-----------------------------------------------------------------------------------------------------

E|--------------------------------------------------------------3----------3-----------3----------3
B|--------------------------------------------------------------3----------3-----------5----------3
G|--7--7--5-----7--5--5--3-----5--------------------------------4--drum----4--drum-----5--drum----4 drum
D|-----------7--------------5-----5--5--3-----3--4--------------5----------5-----------5----------5
A|-----------------------------------------5-------5--5--5--5---5----------5-----------3----------5
E|--------------------------------------------------------------3----------3-----------3----------3

E|---5-------------3--------------3------------------------------------------------------------------
B|---7-------------5--------------3------------------------------------------------------------------
G|---7----drums----5-----drums----4-drums--------------------Back to the beginning-------------------
D|---7-------------5--------------5--------4---------------------------------------------------------
A|---5-------------3--------------5-----------5--5--5--5---------------------------------------------
E|---5-------------3--------------3------------------------------------------------------------------
tabs and chords, guitar tabs, music transcription, music technology, deep learning, music information retrieval, transcribe into tabs & chords, chordify, music renditions, songsterr, reverbnation, tabulature, bollywood chords, ultimate guitar, yousician, guitar lessons, acoustic guitar, electric guitar, guitar tuner, 911 tabs