Bass Tabs for The Surfaris - Wipe Out

The Surfaris - Wipe Out

in C

Intro
G|-----------------------------------------------
D|-----------------------------------------------
A|---2h3---2h3--3--3--3--3---2h3---2h3--3--3--3--
E|-----------------------------------------------

G|-----------------------------------------------
D|-----------------------------------------------
A|---2h3---2h3--3--3--3--3---2h3---2h3--3--3--3--
E|-----------------------------------------------

G|-----------------------------------------------
D|---2h3---2h3--3--3--3--3---2h3---2h3--3--3--3--
A|-----------------------------------------------
E|-----------------------------------------------

G|-----------------------------------------------
D|-----------------------------------------------
A|---2h3---2h3--3--3--3--3---2h3---2h3--3--3--3--
E|-----------------------------------------------

G|-----------------------------------------------
D|-----------------------------------------------
A|-----------------------------------------------
E|---2h3---2h3--3--3--3--3---2h3---2h3--3--3--3--

Stop
G|--------------------------------------------------------------
D|--------------------3--------------------------3--------------
A|--3--------3-----------------3--------------------------3-----
E|--------------------------------------3-----------------------

tabs and chords, guitar tabs, music transcription, music technology, deep learning, music information retrieval, transcribe into tabs & chords, chordify, music renditions, songsterr, reverbnation, tabulature, bollywood chords, ultimate guitar, yousician, guitar lessons, acoustic guitar, electric guitar, guitar tuner, 911 tabs