Guitar Tabs for Jump Out

(/) Slide Up  (\) Slide Down  (h) Hammer On  (p) Pull Off  (b) Bend (r) Release (v) Vibrato (x) Muted

Tabs for Song : 
BPM : 200

VERSE:
guitar 1
E|--------------------------------------------------------------
B|--------------------------------------------------------------
G|--------------------------------------------------------------
D|--------6--4-----------6--4-----------11-9-----------11-9-----
A|-----4--------7-----4--------7-----9--------12----9--------12-
E|--5--------------5--------------10-------------10-------------

guitar 2
E|--9--12-9--5--7--5--
B|--9--9--8--7--7--6--
G|--9--9--9--7--7--7--
D|--------------------
A|--------------------
E|--------------------

Bass: follow guitar 1

Chorus:

guitar 1
E|--12-4--5-----4x----4--5--x2-
B|--14-5--7-----------5--7-----
G|--13-4--6-----------4--6-----
D|--14-6--7-----------6--7-----
A|--12-4--5-----------4--5-----
E|-----------------------------

guitar 2
same as verse but j play around with it more

bass (only bottom 4)
E|-----------------------------------------------------------x4\---------------------------2x-
B|-----------------------------------------------------------------------------------------
G|--------------------12----------------------------6--------------------------------------
D|-----14----14----14----15-------6-----6-----7--------7--------------6-----6-----7-----7--
A|--12----12----12-------------4-----4-----5-----5-----------------4-----4-----5-----5-----
E|-----------------------------------------------------------------------------------------

verse (played more intricately, mess around more)

chorus

BRIDGE

guitar 1 and 2, 2 plays notes singular

E|--9-----16----
B|--9-----16----
G|--9-----16----
D|--11----18----
A|--------------
E|--------------
bass
E|-----------
B|-----------
G|-----------
D|-----------
A|--4-----9--
E|--5-----10-


tabs and chords, guitar tabs, music transcription, music technology, deep learning, music information retrieval, transcribe into tabs & chords, chordify, music renditions, songsterr, reverbnation, tabulature, bollywood chords, ultimate guitar, yousician, guitar lessons, acoustic guitar, electric guitar, guitar tuner, 911 tabs