Bass Tabs for Whatever's Bass Tab

(/) Slide Up  (\) Slide Down  (h) Hammer On  (p) Pull Off  (b) Bend (r) Release (v) Vibrato (x) Muted

Tabs for Song : 
BPM : 200

Intro
G|--------------------------------------------------------------------------------------------------
D|--------------------------------------------------------------------------------------------------
A|--------------------------5--5--5--5--4--4--4--4--------------------------5--5--5--5--4--4--4--4--
E|--5--5--5--5--5--5--5--5--------------------------5--5--5--5--5--5--5--5--------------------------

Verses 1 and 2, mostly you're locked in with the kick following the roots of chords 

Buying contraception in the middle of the day and im.......
G|-----------------------------------------------------------------------------------------------------------
D|-----------------------------------------------------------5--------------5-----7-----7--7-----7-----7--7--
A|------------------------------------------------------5h7------------5h7-----------------------------------
E|--5-----5-----5-----5-----2-----2-----2-----2-----5--------------5-----------------------------------------

G|--------2--------2--------------------2-----------------
D|-----1--------1--------------------1--------------------
A|--2--------2--------------------2-----------------------
E|--------------------0--0--0--0-----------0-----2--4-----

G|-----------------------------------------------------------------------------------------------------
D|-----------------------------------------------------------------------------------------------------
A|--------------------------5--5--5--5--4--4--4--4--------------------------5--5--5--5--4--4--4--4-----
E|--5--5--5--5--5--5--5--5--------------------------5--5--5--5--5--5--5--5-----------------------------

Prechorus 1
feel like my anxiety's been ......
G|-----------------------------------4--------------4--------------------------------------------------------
D|--------------------------------6-----6--------6-----6-----2--2--2--2--2--2--2--2--0--0--0--0--0--0--0--0--
A|--2--2--2--2--2--2--2--2--4--------------4--------------4--------------------------------------------------
E|-----------------------------------------------------------------------------------------------------------
Chorus 1 
its fine you say, nobodys always ok
G|--------------------------------------------------------------------------------------------------
D|--------------------------------------------------------------------------------------------------
A|--0--0--0--0--0--0--0--0--2--2--2--2--2--2--2--2--4--4--4--4--4--4--4--4--5--5--5--5--5--5--5--5--
E|--------------------------------------------------------------------------------------------------

G|--------------------------------------------------------------------------------------------------
D|--------------------------------------------------------------------------------------------------
A|--0--0--0--0--0--0--0--0--2--2--2--2--2--2--2--2--4--4--4--4--4--4--4--4--5--5--5--5-----7-----7--
E|--------------------------------------------------------------------------------------------------

Verse 2 is basically the same as verse 1

Prechorus 2 is also basically the same as prechorus 1

the choruses are the same too, you should feel free to dress these parts up with lots of bass fills
i improved the part on the record, so i'm laying out the basics and trusting you

Bridge
"I wanna be bigger than the things that piss me off"

G|--------------------------------------------------------------------------------------------------
D|--------------------------------------------------------------------------9-----------12----------
A|--9-----------7-----------4-----------5-----------9-----------7-----------------------------------
E|--------------------------------------------------------------------------------------------------
(chug to the d-beat rhythm i cant notate that with tabs well)
G|-----------------------------------------------2--------------6-----------6-----------7--------7--9--9--9--9--
D|-----------------------------------2--4--2--4-----4--2-----4-----4-----4-----4-----6--------6-----------------
A|--2--2--2--2--2--2--2--2--2--4--4-----------------------5-----------5-----------7--------7--------------------
E|--------------------------------------------------------------------------------------------------------------
VERESE THREE AND BIG FINISH
buyin contraception in the middle of the night.......
G|--------------------------------------------------------------------------------------------------
D|--------------------------------------------------------------4-----------------------------------
A|--------------------------------------------------------4--7-----7--4-----------------------------
E|--5--5--5--5--5--5--5--5--2--2--2--2--2--2--2--2--5--5-----------------7--2--2--2--2--2--2--2--2--

G|--------------------------------------------------------------------------------
D|--------------------------2--2--2--2--2--2--2--2--------------------------------
A|--2--2--2--2--2--2--2--2--------------------------2--2--2--2--------------------
E|--------------------------------------------------------------0-----2-----4-----

G|--------------------------------------------------------------------------------------------------
D|--------------------------------------------------7--7--7--7--7--7--7--7--------------------------
A|--------------------------5--5--5--5--4--4--4--4--------------------------5--5--5--5--5--5--5--5--
E|--5--5--5--5--5--5--5--5--------------------------------------------------------------------------

G|--------------------------7--7--7--7--11-11-9--x2--
D|--7--7--7--7--9--9--11-11-0--0--0--0--0--0--0-----
A|--0--0--0--0--0--0--0--0--------------------------
E|--------------------------------------------------



Use manual mode to free up cursor. Paste any tab in acousterr tab maker and we'll play it !!!
tabs and chords, guitar tabs, music transcription, music technology, deep learning, music information retrieval, transcribe into tabs & chords, chordify, music renditions, songsterr, reverbnation, tabulature, bollywood chords, ultimate guitar, yousician, guitar lessons, acoustic guitar, electric guitar, guitar tuner, 911 tabs