Guitar Tabs for Killer - Yoshikage Kira's Theme Guitar Tab

(/) Slide Up  (\) Slide Down  (h) Hammer On  (p) Pull Off  (b) Bend (r) Release (v) Vibrato (x) Muted

Tabs for Song : 
BPM : 200

RIFF 
E|-----------------------------------------------------------------------
B|--------------------6-----7-----6--7--6-----4-----3--4--3v----4(bend 1/2 half step)
G|--------------------------------------------------------------------3v-
D|--6-----8-----9--------------------------------------------------------
A|-----------------------------------------------------------------------
E|-----------------------------------------------------------------------

RIFF
E|--------------------------------------------------------------------
B|--------------------6-----4-----6-----7-----8------------3h-4h-5h4--
G|--------------------------------------------------------------------
D|--6-----8-----9-----------------------------------------------------
A|--------------------------------------------------------------------
E|--------------------------------------------------------------------

PRELUDE
E|--------------------------------------------------------------------
B|--14----14-14-14----14-14-11h14-12-11-11h14-12-11-10----10----10----
G|--------------------------------------------------------------------
D|--------------------------------------------------------------------
A|--------------------------------------------------------------------
E|--------------------------------------------------------------------

PRELUDE
E|-----------------------------------------------------------------------
B|--10-10--8h10-8--7---8h10-8--7--6-----6-----5-----5-----4-----4-----4--
G|-----------------------------------------------------------------------
D|-----------------------------------------------------------------------
A|-----------------------------------------------------------------------
E|-----------------------------------------------------------------------

BRIDGE
E|-USE PALM MUTE IN THIS SECTION-----------------------------------------------------
B|-----------------------------------------------------------------------------------
G|-----------------------------------------------------------------------------------
D|--9-----9-----8-----8-----9-----8-----------------9-----9-----8-----8-----9-----8--
A|--11----11----11----11----11----11----------------11----11----11----11----11----11-
E|-----------------------------------------------------------------------------------

PRELUDE 2
E|--------------------------------------------------------------------------------------------------
B|--5-----5-----5-----5-----4-----4-----4-----4-----5-----5-----5-----5-----4-----4-----4-----4-----
G|--------------------------------------------------------------------------------------------------
D|--------------------------------------------------------------------------------------------------
A|--------------------------------------------------------------------------------------------------
E|--------------------------------------------------------------------------------------------------

PRELUDE2
E|-----------------------------------------------------------------------------------------
B|-----------------------------------------------------------------------------------------
G|--1-----1--3-----3--4-----4--6-----6--7-----7-----7-----7-----6-----6-----6-----6--------
D|-----------------------------------------------------------------------------------------
A|-----------------------------------------------------------------------------------------
E|-----------------------------------------------------------------------------------------

PRELUDE 2
E|-------------------------------------------------------------------------------------
B|-------------------------------------------------------------------------------------
G|------------------------1/7-----7--6-----6-----6-----6-----6-----5-----5-----5-----5-
D|---2/4-----0--------0----------------------------------------------------------------
A|--------------4----------------------------------------------------------------------
E|-------------------------------------------------------------------------------------

BRIDGE
E|-USE PALM MUTE IN THIS SECTION-----------------------------------------------------
B|-----------------------------------------------------------------------------------
G|-----------------------------------------------------------------------------------
D|--9-----9-----8-----8-----9-----8-----------------9-----9-----8-----8-----9-----8--
A|--11----11----11----11----11----11----------------11----11----11----11----11----11-
E|-----------------------------------------------------------------------------------

RIFF 
E|-----------------------------------------------------------------------
B|--------------------6-----7-----6--7--6-----4-----3--4--3v----4(bend 1/2 half step)
G|--------------------------------------------------------------------3v-
D|--6-----8-----9--------------------------------------------------------
A|-----------------------------------------------------------------------
E|-----------------------------------------------------------------------

RIFF
E|--------------------------------------------------------------------
B|--------------------6-----4-----6-----7-----8------------3h-4h-5h4--
G|--------------------------------------------------------------------
D|--6-----8-----9-----------------------------------------------------
A|--------------------------------------------------------------------
E|--------------------------------------------------------------------

DROP
E|--21----21-21-21----21-21-19h21-19-18----19h21-19-18----17----17----17-17-15h17-15-14----15h17-15-14-
B|-----------------------------------------------------------------------------------------------------
G|-----------------------------------------------------------------------------------------------------
D|-----------------------------------------------------------------------------------------------------
A|-----------------------------------------------------------------------------------------------------
E|-----------------------------------------------------------------------------------------------------

DROP
E|--13-------13-------12-------12-------11-------11-------11-------11-
B|--------------------------------------------------------------------
G|--------------------------------------------------------------------
D|--------------------------------------------------------------------
A|--------------------------------------------------------------------
E|--------------------------------------------------------------------

CLOSURE

E|-USE PALM MUTE FOR THIS SECTION----------------------------------------------------------------------
B|-----------------------------------------------------------------------------------------------------
G|-----------------------------------------------------------------------------------------------------
D|--8-----------------8-----------------8-----------------8-----------8--------8--------8--------8-----
A|--10----------------10----------------10----------------10----------10-------10-------10-------10----
E|-----------------------------------------------------------------------------------------------------

CLOSURE
E|-----------------------------------------------------------------------------------------------------
B|-----------------------------------------------------------------------------------------------------
G|-----------------------------------------------------------------------------------------------------
D|-----8-----8-----8-----8-----8-----8-----8-----8--8--8--8--8--8--8--8--8--8--8--8--8--8--8--8--8--8--
A|-----10----10----10----10----10----10----10----10-10-10-10-10-10-10-10-10-10-10-10-10-10-10-10-10-10-
E|-----------------------------------------------------------------------------------------------------

CLOSURE
E|-----------------------
B|-----------------------
G|-----------------------
D|--8--8--8--8--8--8--8--
A|--10-10-10-10-10-10-10-
E|-----------------------



tabs and chords, guitar tabs, music transcription, music technology, deep learning, music information retrieval, transcribe into tabs & chords, chordify, music renditions, songsterr, reverbnation, tabulature, bollywood chords, ultimate guitar, yousician, guitar lessons, acoustic guitar, electric guitar, guitar tuner, 911 tabs