Bass Tabs for Wallows - It's Only Right Bass Tab

(/) Slide Up  (\) Slide Down  (h) Hammer On  (p) Pull Off  (b) Bend (r) Release (v) Vibrato (x) Muted

Wallows - Its's Only Right

Intro
G|--------------------------
D|--------------------------
A|--------------------------
E|--10-10----10-12-12-12-12-
 Intro/Verse
G|-----------------------------------------------------------------------11-9-----------------------------------------------------------
D|-----------------------------11-9--7--------11-9--------11-9--7--------------11-------11-9--7--------11-9--7--9--9--9--9--9--9--9--9--
A|--10-10-10-10-10-10-10-10-------------7--7-----------------------7--7--------------------------7--7-----------------------------------
E|--------------------------------------------------------------------------------------------------------------------------------------

Chorus 
G|-----------------------------------------------------------------------------
D|-----------------------------------------------------------------------------
A|-----------------------------------------------------10-10-10-10-10-10-10-10-
E|--10-10-10-10-10-10-10-10-7--7--7--7--7--7--7--7-----------------------------

Chorus (Third measure)
G|--------------------------------------------------------------------------------------------------
D|--------------------------------------------------------------------------------------------------
A|--------------------------------------------------10-10-10-10-10-10-10-10-14-14-14-14-12-12-12-12-
E|--10-10-10-10-10-10-10-10-7--7--7--7--7--7--7--7--------------------------------------------------
 Chorus (Fouth Measue)
G|--------------------------------------------------------------------------------------------------9
D|--------------------------------------------------------------------------------------------------
A|--------------------------------------------------10-10-10-10-10-10-10-10-9--9--9--9--7--7--7--7--
E|--10-10-10-10-10-10-10-10-7--7--7--7--7--7--7--7--------------------------------------------------

 Breakdown
G|--------------------------------------------------------------------------------------------------------------------
D|--12-------12-------11-9-----12-14-16----------14----------12----------12----------------------------------12-------
A|--------------9--9-----------------------14----------12----------14----------12----14----14----------12----------14-
E|-----------------------------------------------------------------------------------------------10-------------------



tabs and chords, guitar tabs, music transcription, music technology, deep learning, music information retrieval, transcribe into tabs & chords, chordify, music renditions, songsterr, reverbnation, tabulature, bollywood chords, ultimate guitar, yousician, guitar lessons, acoustic guitar, electric guitar, guitar tuner, 911 tabs