Guitar Tabs for Wake Me Up When September Ends(shortened)

REGULAR TUNING

    
E|--------------------------------------------------------------------------------------
B|--------3--------3-----------3--------3-----------3--------3-----------3--------3-----
G|--0--0-----0--0--------0--0-----0--0--------0--0-----0--0--------0--0-----0--0--------
D|--------------------------------------------------------------------------------------
A|--------------------------------------------------------------------------------------
E|--------------------------------------------------------------------------------------
    
E|--------------------------------------------------------------------------------------
B|--------3--------3-----------3--------3-----------3--------3-----------3--------3-----
G|--0--0-----0--0-----------0--------0-----------0--------0-----------0--------0--------
D|-----------------------4--------4-----------2--------2-----------0--------0-----------
A|--------------------------------------------------------------------------------------
E|--------------------------------------------------------------------------------------
   
E|--------------------------------------------------------------------------------------
B|--------5--------5-----------4--------4-----------3--------3-----------3--------3-----
G|-----5-----5--------------5-----5--------------0-----0-----0--------0-----0-----0-----
D|--------------------------------------------------------------------------------------
A|--3-----------3--------3-----------3--------------------------------------------------
E|--------------------------------------------3-----------3--------3-----------3--------

E|--------------------------------------------------------------------------------------
B|--------3--------3-----------3--------3-----------3--------3-----------3--------3-----
G|--0--0-----0--0-----------0--------0-----------0--------0-----------0--------0--------
D|-----------------------4--------4-----------2--------2-----------0--------0-----------
A|--------------------------------------------------------------------------------------
E|--------------------------------------------------------------------------------------

E|--------------------------------------------------------------------------------------
B|--------5--------5-----------4--------4-----------3--------3-----------3-----------3--
G|-----5-----5--------------5-----5--------------0-----0-----0--------0-----0-----0-----
D|--------------------------------------------------------------------------------------
A|--3-----------3--------3-----------3--------------------------------------------------
E|--------------------------------------------3-----------3--------3-----------2--------

E|--------------------------------------------------------------------------------------
B|--------0--------0-----------3--------3-----------5--------5-----------7--------7-----
G|-----0-----0-----0--------0-----0-----0--------0-----0-----0--------0-----0-----0-----
D|--------------------------------------------------------------------------------------
A|-----------------------2-----------2--------3-----------3--------5-----------5--------
E|--0-----------0-----------------------------------------------------------------------

E|--------------------------------------------------------------------------------------
B|--------3--------3-----------3--------3-----------3--------3-----------3--------3-----
G|--0--0-----0--0-----------0--------0-----------0--------0-----------0--------0--------
D|-----------------------4--------4-----------2--------2-----------0--------0-----------
A|--------------------------------------------------------------------------------------
E|--------------------------------------------------------------------------------------

E|--------------------------------------------------------------------------------------
B|--------5--------5-----------4--------4-----------3--------3-----------3--------3-----
G|-----5-----5--------------5-----5--------------0-----0-----0--------0-----0-----0-----
D|--------------------------------------------------------------------------------------
A|--3-----------3--------3-----------3--------------------------------------------------
E|--------------------------------------------3-----------3--------3-----------3--------

E|-----------------------------------------------------------------------------------
B|--------3--------3-----------3--------3-----------3--------3-----------3--------3--
G|--0--0-----0--0-----------0--------0-----------0--------0-----------0--------0-----
D|-----------------------4--------4-----------2--------2-----------0--------0--------
A|-----------------------------------------------------------------------------------
E|-----------------------------------------------------------------------------------

E|--------------------------------------------------
B|--------------------------------------------------
G|--------------------------------------------------
D|--------------------------------------------------
A|--3--3--3--3--3--3--3--3--------------------------
E|--------------------------3--3--3--3--3--3--3--3--

E|--------------------------------------------------------------------------------------
B|--------3--------3-----------3--------3-----------3--------3-----------3--------3-----
G|--0--0-----0--0-----------0--------0-----------0--------0-----------0--------0--------
D|-----------------------4--------4-----------2--------2-----------0--------0-----------
A|--------------------------------------------------------------------------------------
E|--------------------------------------------------------------------------------------

E|--------------------------------------------------------------------------------------
B|--------------------------------------------------------------------------------------
G|--------------------------------------------------------------------------------------
D|--------------------------------------------------------------------------------------
A|--3--3--3--3--3--3--3--3--------------------------------------2--2--2--2--3--3--3--3--
E|--------------------------3--3--3--3--3--3--2--2--0--0--0--0--------------------------
   
E|--------------------------------------------------------------
B|--------------------------------------------------------------
G|--------------------------------------------------------------
D|--------------------------------------------------------------
A|--------------------------2--2--2--2--3--3--3--3--5--5--5--5--
E|--3--3--2--2--0--0--0--0--------------------------------------

E|--------------------------------------------------------------------------------------
B|--------3--------3-----------3--------3-----------3--------3-----------3--------3-----
G|--0--0-----0--0-----------0--------0-----------0--------0-----------0--------0--------
D|-----------------------4--------4-----------2--------2-----------0--------0-----------
A|--------------------------------------------------------------------------------------
E|--------------------------------------------------------------------------------------

E|--------------------------------------------------------------------------------------
B|--------------------------------------------------------------------------------------
G|--------------------------------------------------------------------------------------
D|--------------------------------------------------------------------------------------
A|--3--3--3--3--3--3--3--3--------------------------------------2--2--2--2--3--3--3--3--
E|--------------------------3--3--3--3--3--3--2--2--0--0--0--0--------------------------

E|--------------------------------------------------------------------------------------
B|--------------------------------------------------------------------------------------
G|--------------------------------------------------------------------------------------
D|--------------------------------------------------------------------------------------
A|--------------------------2--2--2--2--3--3--3--3--5--5--5--5--5--5--5--5--5--5--5--5--
E|--3--3--2--2--0--0--0--0--------------------------------------------------------------

E|--------------------------
B|--------------------------
G|--------------------------
D|--------------------------
A|--5--5--5--5--------------
E|--------------3-----------

E|--------------------------------------------------------------------------------------
B|--------3--------3-----------3--------3-----------3--------3-----------3--------3-----
G|--0--0-----0--0--------0--0-----0--0--------0--0-----0--0--------0--0-----0--0--------
D|--------------------------------------------------------------------------------------
A|--------------------------------------------------------------------------------------
E|--------------------------------------------------------------------------------------

E|--------------------------------------------------------------------------------------
B|--------3--------3-----------3--------3-----------3--------3-----------3--------3-----
G|--0--0-----0--0-----------0--------0-----------0--------0-----------0--------0--------
D|-----------------------4--------4-----------2--------2-----------0--------0-----------
A|--------------------------------------------------------------------------------------
E|--------------------------------------------------------------------------------------

E|--------------------------------------------------
B|--------------------------------------------------
G|--------------------------------------------------
D|--------------------------------------------------
A|--3--3--3--3--3--3--3--3--------------------------
E|--------------------------3--3--3--3--3--3--3--3--

E|--------------------------------------------------------------------------------------
B|--------3--------3-----------3--------3-----------3--------3-----------3--------3-----
G|--0--0-----0--0-----------0--------0-----------0--------0-----------0--------0--------
D|-----------------------4--------4-----------2--------2-----------0--------0-----------
A|--------------------------------------------------------------------------------------
E|--------------------------------------------------------------------------------------
   
E|--------------------------------------------------------------------------------------
B|--------------------------------------------------------------------------------------
G|--------------------------------------------------------------------------------------
D|--------------------------------------------------------------------------------------
A|--3--3--3--3--3--3--3--3--------------------------3--3--3--3--3--3--3--3--------------
E|--------------------------3--3--3--3--3--3--3--3--------------------------3--3--3--3--

E|--------------------------------------------------------------------------------------
B|--------------------------------------------------------------------------------------
G|--------------------------------------------------------------------------------------
D|--------------------------------------------------------------------------------------
A|--------------3--3--3--3--3--3--3--3--------------------------------------------------
E|--3--3--3--3--------------------------3--3--3--3--3--3--3--3--------------------------



tabs and chords, guitar tabs, music transcription, music technology, deep learning, music information retrieval, transcribe into tabs & chords, chordify, music renditions, songsterr, reverbnation, tabulature, bollywood chords, ultimate guitar, yousician, guitar lessons, acoustic guitar, electric guitar, guitar tuner, 911 tabs