Bass Tabs for Green Day - Wake Me Up When September Ends

BASS TAB
Green Day - Wake Me Up When September Ends

No bass until drum pre-chorus

Drum with bass entry WMUWSE & the final WMUWSE's
G|--------------------------------------------------------------------------------------------------
D|--------------------------------------------------------------------------------------------------
A|--3--3--3--3--3--3--3--3--3--3--3--3--3--3--3--3--------------------------------------------------
E|--------------------------------------------------3--3--3--3--3--3--3--3--3--3--3--3--3--3--3--3--

Verse
G|--------------------------------------------------------------------------------7--
D|--------12-------------------12-------------------9--------------------7-----------
A|--10-10----10-10-10----9--9-----9--9--9-----7--7-----7--7--7-----5--5-----5--5-----
E|-----------------------------------------------------------------------------------

Pre-Chorus
G|-----------------------------------------------------------------------------------------------
D|-----------------------------------------------------------------------------------------------
A|--3--3--3--3--3--3--3--3--3--3--3--3--3--3--3--3-----------------------------------------------
E|--------------------------------------------------3--3--3--3--3--3--3--3--3--3--3--3--2--2--2--

Chorus
G|--------------------------------------------------------------------------------------------------------
D|--------------------------------------------------------------------------------------------------------
A|--------------------------2--2--2--2--2--2--2--2--3--3--3--3--3--3--3--3--------------------------------
E|--0--0--0--0--0--0--0--0--------------------------------------------------3--3--3--3--2--2--2--2--------

G|--------------------------------------------------------------------------------------------------
D|--------------------------------------------------------------------------------------------------
A|--------------------------2--2--2--2--2--2--2--2--3--3--3--3--3--3--3--3--5--5--5--5--5--5--5--5--
E|--0--0--0--0--0--0--0--0--------------------------------------------------------------------------

Guitar Solo 
G|--------------------------------------------------------------------------------------------------------
D|--------------------------------------------------------------------------------------------------------
A|--------------------------2--2--2--2--2--2--2--2--3--3--3--3--3--3--3--3--------------------------------
E|--0--0--0--0--0--0--0--0--------------------------------------------------3--3--3--3--2--2--2--2--------

G|--------------------------------------------------------------------------------------------------
D|--------------------------------------------------------------------------------------------------
A|--------------------------2--2--2--2--2--2--2--2--3--3--3--3--3--3--3--3--5--5--5--5--5--5--5--5--
E|--0--0--0--0--0--0--0--0--------------------------------------------------------------------------

G|-----------------------------------------------------------------------
D|-----------------------------------------------------------------------
A|--5--5--5--5--5--5--5--5--5--5--5--5--5--5--5--5--5--5--5--5--5--5--5--
E|-----------------------------------------------------------------------









tabs and chords, guitar tabs, music transcription, music technology, deep learning, music information retrieval, transcribe into tabs & chords, chordify, music renditions, songsterr, reverbnation, tabulature, bollywood chords, ultimate guitar, yousician, guitar lessons, acoustic guitar, electric guitar, guitar tuner, 911 tabs