Guitar Tabs for Wake Me Up When September Ends

REGULAR TUNING

    INTRO    A
E|--------------------------------------------------------------------------------------
B|--------3--------3-----------3--------3-----------3--------3-----------3--------3-----
G|--0--0-----0--0--------0--0-----0--0--------0--0-----0--0--------0--0-----0--0--------
D|--------------------------------------------------------------------------------------
A|--------------------------------------------------------------------------------------
E|--------------------------------------------------------------------------------------
    VERSE    B
E|--------------------------------------------------------------------------------------
B|--------3--------3-----------3--------3-----------3--------3-----------3--------3-----
G|--0--0-----0--0-----------0--------0-----------0--------0-----------0--------0--------
D|-----------------------4--------4-----------2--------2-----------0--------0-----------
A|--------------------------------------------------------------------------------------
E|--------------------------------------------------------------------------------------
    CHORUS    C
E|--------------------------------------------------------------------------------------
B|--------5--------5-----------4--------4-----------3--------3-----------3--------3-----
G|-----5-----5--------------5-----5--------------0-----0-----0--------0-----0-----0-----
D|--------------------------------------------------------------------------------------
A|--3-----------3--------3-----------3--------------------------------------------------
E|--------------------------------------------3-----------3--------3-----------3--------
    VERSE    B
E|--------------------------------------------------------------------------------------
B|--------3--------3-----------3--------3-----------3--------3-----------3--------3-----
G|--0--0-----0--0-----------0--------0-----------0--------0-----------0--------0--------
D|-----------------------4--------4-----------2--------2-----------0--------0-----------
A|--------------------------------------------------------------------------------------
E|--------------------------------------------------------------------------------------
    CHORUS    D
E|--------------------------------------------------------------------------------------
B|--------5--------5-----------4--------4-----------3--------3-----------3-----------3--
G|-----5-----5--------------5-----5--------------0-----0-----0--------0-----0-----0-----
D|--------------------------------------------------------------------------------------
A|--3-----------3--------3-----------3--------------------------------------------------
E|--------------------------------------------3-----------3--------3-----------2--------

E|--------------------------------------------------------------------------------------
B|--------0--------0-----------3--------3-----------5--------5-----------7--------7-----
G|-----0-----0-----0--------0-----0-----0--------0-----0-----0--------0-----0-----0-----
D|--------------------------------------------------------------------------------------
A|-----------------------2-----------2--------3-----------3--------5-----------5--------
E|--0-----------0-----------------------------------------------------------------------
    VERSE    B
E|--------------------------------------------------------------------------------------
B|--------3--------3-----------3--------3-----------3--------3-----------3--------3-----
G|--0--0-----0--0-----------0--------0-----------0--------0-----------0--------0--------
D|-----------------------4--------4-----------2--------2-----------0--------0-----------
A|--------------------------------------------------------------------------------------
E|--------------------------------------------------------------------------------------
    CHORUS    C
E|--------------------------------------------------------------------------------------
B|--------5--------5-----------4--------4-----------3--------3-----------3--------3-----
G|-----5-----5--------------5-----5--------------0-----0-----0--------0-----0-----0-----
D|--------------------------------------------------------------------------------------
A|--3-----------3--------3-----------3--------------------------------------------------
E|--------------------------------------------3-----------3--------3-----------3--------
    INTERLUDE     E
E|--------------------------------------------------------------------------------------
B|--------3--------3-----------3--------3-----------3--------3-----------3--------3-----
G|--0--0-----0--0--------0--0-----0--0--------0--0-----0--0--------0--0-----0--0--------
D|--------------------------------------------------------------------------------------
A|--------------------------------------------------------------------------------------
E|--------------------------------------------------------------------------------------
    VERSE    B 
E|-----------------------------------------------------------------------------------
B|--------3--------3-----------3--------3-----------3--------3-----------3--------3--
G|--0--0-----0--0-----------0--------0-----------0--------0-----------0--------0-----
D|-----------------------4--------4-----------2--------2-----------0--------0--------
A|-----------------------------------------------------------------------------------
E|-----------------------------------------------------------------------------------
    POWER CHORDS     F
E|--------------------------------------------------------------------------------------
B|--------------------------------------------------------------------------------------
G|--5--5--5--5--5--5--5--5--5--5--5--5--5--5--5--5--------------------------------------
D|--5--5--5--5--5--5--5--5--5--5--5--5--5--5--5--5--5--5--5--5--5--5--5--5--5--5--5--5--
A|--3--3--3--3--3--3--3--3--3--3--3--3--3--3--3--3--5--5--5--5--5--5--5--5--5--5--5--5--
E|--------------------------------------------------3--3--3--3--3--3--3--3--3--3--3--3--

E|--------------
B|--------------
G|--------------
D|--5--5--5--5--
A|--5--5--5--5--
E|--3--3--3--3--
    VERSE     B
E|--------------------------------------------------------------------------------------
B|--------3--------3-----------3--------3-----------3--------3-----------3--------3-----
G|--0--0-----0--0-----------0--------0-----------0--------0-----------0--------0--------
D|-----------------------4--------4-----------2--------2-----------0--------0-----------
A|--------------------------------------------------------------------------------------
E|--------------------------------------------------------------------------------------
    POWER CHORDS     G
E|--------------------------------------------------------------------------
B|--------------------------------------------------------------------------
G|--5--5--5--5--5--5--5--5--5--5--5--5--5--5--5--5--------------------------
D|--5--5--5--5--5--5--5--5--5--5--5--5--5--5--5--5--5--5--5--5--5--5--5--5--
A|--3--3--3--3--3--3--3--3--3--3--3--3--3--3--3--3--5--5--5--5--5--5--5--5--
E|--------------------------------------------------3--3--3--3--3--3--3--3--

E|--------------------------------------------------------------------------------------
B|--------------------------------------------------------------------------------------
G|--------------------------------------------------4--4--4--4--4--4--4--4--5--5--5--5--
D|--5--5--5--5--4--4--4--4--2--2--2--2--2--2--2--2--4--4--4--4--4--4--4--4--5--5--5--5--
A|--5--5--5--5--4--4--4--4--2--2--2--2--2--2--2--2--2--2--2--2--2--2--2--2--3--3--3--3--
E|--3--3--3--3--2--2--2--2--0--0--0--0--0--0--0--0--------------------------------------

E|--------------------------------------------------------------------------------------
B|--------------------------------------------------------------------------------------
G|--5--5--5--5--------------------------------------------------------------------------
D|--5--5--5--5--5--5--5--5--5--5--5--5--5--5--5--5--4--4--4--4--2--2--2--2--2--2--2--2--
A|--3--3--3--3--5--5--5--5--5--5--5--5--5--5--5--5--4--4--4--4--2--2--2--2--2--2--2--2--
E|--------------3--3--3--3--3--3--3--3--3--3--3--3--2--2--2--2--0--0--0--0--0--0--0--0--

E|--------------------------------------------------------------------------
B|--------------------------------------------------------------------------
G|--4--4--4--4--4--4--4--4--5--5--5--5--5--5--5--5--7--7--7--7--7--7--7--7--
D|--4--4--4--4--4--4--4--4--5--5--5--5--5--5--5--5--7--7--7--7--7--7--7--7--
A|--2--2--2--2--2--2--2--2--3--3--3--3--3--3--3--3--5--5--5--5--5--5--5--5--
E|--------------------------------------------------------------------------
    VERSE      B
E|--------------------------------------------------------------------------------------
B|--------3--------3-----------3--------3-----------3--------3-----------3--------3-----
G|--0--0-----0--0-----------0--------0-----------0--------0-----------0--------0--------
D|-----------------------4--------4-----------2--------2-----------0--------0-----------
A|--------------------------------------------------------------------------------------
E|--------------------------------------------------------------------------------------
    POWER CHORDS G
E|--------------------------------------------------------------------------
B|--------------------------------------------------------------------------
G|--5--5--5--5--5--5--5--5--5--5--5--5--5--5--5--5--------------------------
D|--5--5--5--5--5--5--5--5--5--5--5--5--5--5--5--5--5--5--5--5--5--5--5--5--
A|--3--3--3--3--3--3--3--3--3--3--3--3--3--3--3--3--5--5--5--5--5--5--5--5--
E|--------------------------------------------------3--3--3--3--3--3--3--3--

E|--------------------------------------------------------------------------------------
B|--------------------------------------------------------------------------------------
G|--------------------------------------------------4--4--4--4--4--4--4--4--5--5--5--5--
D|--5--5--5--5--4--4--4--4--2--2--2--2--2--2--2--2--4--4--4--4--4--4--4--4--5--5--5--5--
A|--5--5--5--5--4--4--4--4--2--2--2--2--2--2--2--2--2--2--2--2--2--2--2--2--3--3--3--3--
E|--3--3--3--3--2--2--2--2--0--0--0--0--0--0--0--0--------------------------------------

E|--------------------------------------------------------------------------------------
B|--------------------------------------------------------------------------------------
G|--5--5--5--5--------------------------------------------------------------------------
D|--5--5--5--5--5--5--5--5--5--5--5--5--5--5--5--5--4--4--4--4--2--2--2--2--2--2--2--2--
A|--3--3--3--3--5--5--5--5--5--5--5--5--5--5--5--5--4--4--4--4--2--2--2--2--2--2--2--2--
E|--------------3--3--3--3--3--3--3--3--3--3--3--3--2--2--2--2--0--0--0--0--0--0--0--0--

E|--------------------------------------------------------------------------
B|--------------------------------------------------------------------------
G|--4--4--4--4--4--4--4--4--5--5--5--5--5--5--5--5--7--7--7--7--7--7--7--7--
D|--4--4--4--4--4--4--4--4--5--5--5--5--5--5--5--5--7--7--7--7--7--7--7--7--
A|--2--2--2--2--2--2--2--2--3--3--3--3--3--3--3--3--5--5--5--5--5--5--5--5--
E|--------------------------------------------------------------------------
    POWER CHORDS H
E|--------------------------------------------------------------------------------------
B|--------------------------------------------------------------------------------------
G|--7--7--7--7--7--7--7--7--7--7--7--7--7--7--7--7--7--7--7--7--7--7--7--7--------------
D|--7--7--7--7--7--7--7--7--7--7--7--7--7--7--7--7--7--7--7--7--7--7--7--7--5-----------
A|--5--5--5--5--5--5--5--5--5--5--5--5--5--5--5--5--5--5--5--5--5--5--5--5--5-----------
E|--------------------------------------------------------------------------3-----------
    VERSE     I
E|--------------------------------------------------------------------------------------
B|--------3--------3-----------3--------3-----------3--------3-----------3--------3-----
G|--0--0-----0--0--------0--0-----0--0--------0--0-----0--0--------0--0-----0--0--------
D|--------------------------------------------------------------------------------------
A|--------------------------------------------------------------------------------------
E|--------------------------------------------------------------------------------------
    VERSE B
E|--------------------------------------------------------------------------------------
B|--------3--------3-----------3--------3-----------3--------3-----------3--------3-----
G|--0--0-----0--0-----------0--------0-----------0--------0-----------0--------0--------
D|-----------------------4--------4-----------2--------2-----------0--------0-----------
A|--------------------------------------------------------------------------------------
E|--------------------------------------------------------------------------------------
    POWER CHORDS     F
E|--------------------------------------------------------------------------------------
B|--------------------------------------------------------------------------------------
G|--5--5--5--5--5--5--5--5--5--5--5--5--5--5--5--5--------------------------------------
D|--5--5--5--5--5--5--5--5--5--5--5--5--5--5--5--5--5--5--5--5--5--5--5--5--5--5--5--5--
A|--3--3--3--3--3--3--3--3--3--3--3--3--3--3--3--3--5--5--5--5--5--5--5--5--5--5--5--5--
E|--------------------------------------------------3--3--3--3--3--3--3--3--3--3--3--3--

E|--------------
B|--------------
G|--------------
D|--5--5--5--5--
A|--5--5--5--5--
E|--3--3--3--3--
    VERSE B
E|--------------------------------------------------------------------------------------
B|--------3--------3-----------3--------3-----------3--------3-----------3--------3-----
G|--0--0-----0--0-----------0--------0-----------0--------0-----------0--------0--------
D|-----------------------4--------4-----------2--------2-----------0--------0-----------
A|--------------------------------------------------------------------------------------
E|--------------------------------------------------------------------------------------
    OUTRO J
E|--------------------------------------------------------------------------------------
B|--------------------------------------------------------------------------------------
G|--5--5--5--5--5--5--5--5--5--5--5--5--5--5--5--5--------------------------------------
D|--5--5--5--5--5--5--5--5--5--5--5--5--5--5--5--5--5--5--5--5--5--5--5--5--5--5--5--5--
A|--3--3--3--3--3--3--3--3--3--3--3--3--3--3--3--3--5--5--5--5--5--5--5--5--5--5--5--5--
E|--------------------------------------------------3--3--3--3--3--3--3--3--3--3--3--3--

E|--------------------------------------------------------------------------------------
B|--------------------------------------------------------------------------------------
G|--5--5--5--5--5--5--5--5--5--5--5--5--5--5--5--5--------------------------------------
D|--5--5--5--5--5--5--5--5--5--5--5--5--5--5--5--5--5--5--5--5--5--5--5--5--5--5--5--5--
A|--3--3--3--3--3--3--3--3--3--3--3--3--3--3--3--3--5--5--5--5--5--5--5--5--5--5--5--5--
E|--------------------------------------------------3--3--3--3--3--3--3--3--3--3--3--3--

E|--------------------------------------------------------------------------------------
B|--------------------------------------------------------------------------------------
G|--5--5--5--5--5--5--5--5--5--5--5--5--5--5--5--5--------------------------------------
D|--5--5--5--5--5--5--5--5--5--5--5--5--5--5--5--5--5--5--5--5--5--5--5--5--5--5--5--5--
A|--3--3--3--3--3--3--3--3--3--3--3--3--3--3--3--3--5--5--5--5--5--5--5--5--5--5--5--5--
E|--------------------------------------------------3--3--3--3--3--3--3--3--3--3--3--3--

E|-----------------------
B|-----------------------
G|-----------------------
D|--5--------------------
A|--5--------------------
E|--3--------------------





tabs and chords, guitar tabs, music contests, music covers, songsterr, reverbnation, renditions, tabulature, bollywood chords, ultimate guitar, yousician, guitar lessons, torrins, fender, gibson, acoustic guitar, electric guitar, youtube covers, gootar, guitar tuner, A-Z tabs, 911 tabs