Ukulele Tabs for W Srod Nocnej Ciszy Tab By Mashi


Song lyrics here 
A|-----------------2--2--3-----2-----------------2--2--3-----2-----
E|--------2-----------------------------2--------------------------
C|--------------2-----------------------------2--------------------
G|--0--2-----0--------------2-----0--2-----0--------------2--------

A|--------2-----2--3--------------2-----2--3-----------------0--------
E|-----3-----3-----------2-----3-----3-----------2-----3--3-----2--3--
C|--------------------------2-----------------------2-----------------
G|--------------------2-----------------------2-----------------------

WSZYSTKO ZROBIONE PRZEZ MASHIEGO, RYTMIKA ZE SLUCHU GRAJACEGO MUSI BYC.
tabs and chords, guitar tabs, music transcription, music technology, deep learning, music information retrieval, transcribe into tabs & chords, chordify, music renditions, songsterr, reverbnation, tabulature, bollywood chords, ultimate guitar, yousician, guitar lessons, acoustic guitar, electric guitar, guitar tuner, 911 tabs