Guitar Tabs for Isabelle By Sam Ruthen Bass Tab

(/) Slide Up  (\) Slide Down  (h) Hammer On  (p) Pull Off  (b) Bend (r) Release (v) Vibrato (x) Muted

Tabs for Song : 

Intro riff
E|----------------------------------------------x4
B|-----------------------------------------
G|-----------------------------------------
D|--------------------------------8--10----
A|--------------------6--6--8--10----------
E|--8--8--8--6---8\------------------------

-Verse riff

E|-----------------------------------------------------------------------------x4
B|-----------------------------------------------------------------------------
G|-----------------------------------------------------------------------------
D|-----------------------------------------------------------------------------
A|--------------6--------------------8--6--------------6-----------------10-8--
E|-----8--8--8-----8--6--6-----6--6-----------8--8--8-----8--6--6--6--6--------

Chorus

E|--------------------------------------------------------------------------
B|--------------------------------------------------------------------------
G|--------------10----------------------------------10----------------------
D|-----10----------10-------10----------------10-------10-------6-----------
A|-----------8--------8--------------------------8--------8--------6--------
E|--8--------------------8-----8--6--6--7--8-----------------4--------3-----





E|-----------------------------------------------------------------------------------------------------------------------------
B|-----------------------------------------------------------------------------------------------------------------------------
G|-----------10-------------------------------------10-------------------------------------------------------------------------
D|-----10-------10----------10----------------10-------10-------6--------------------------------------------------------------
A|--------8--------8-----------------------------8--------8--------6-----------------------------------------------------------
E|--8--------------------8-----8--6--6--7--8-----------------4--------3--3--3--4--4--4--3--3--3--4--4--4--3--3--3--4--4--4--3--

Intro riff
E|--------------------------------------------------------------------
B|--------------------------------------------------------------------
G|--------------------------------------------------------------------
D|-----------------------------8--10----------------------------8--10-
A|-----------------6--6--8--10----------------------6--6--8--10-------
E|--8--8--8--6--8--------------------8--8--8--6--8--------------------

E|-----------------------------------------------------------------------x4-
B|-----------------------------------------------------------------------
G|-----------------------------------------------------------------------
D|-----------------------------------------------------------------------
A|-----------6-----------------8--6--------------6-----------------10-8--
E|--8--8--8-----8--6--6--6--6-----------8--8--8-----8--6--6--6--6--------

Breakdown/solo 
E|-----------------------------------------------------------------------------------------------------------------------------------
B|-----------------------------------------------------------------------------------------------------------------------------------
G|-----------------------------------------------------------------------------------------------------------------------------------
D|-----------------------------------------------------------------------------------------------------------------------------------
A|-----------------------------------------------------------------------------------------------------------------------------------
E|--8-----6-----4-----3--------8-----6-----4-----3-----8--8--8--8--8--8--8--8--6--6--6--6--6--6--6--6--4--4--4--4--4--4--4--4--3--3--

E|-------------------------------------------------------------------------------------------------------------------
B|--------------------------------------------------------------------------------------------------------------------
G|--------------------------------------------------------------------------------------------------------------------
D|--------------------------------------------------------------------------------------------------------------------
A|--------------------------------------------------------------------------------------------------------------------
E|--3--3--3--3--3--3--8--8--8--8--8--8--8--8--6--6--6--6--6--6--6--6--4--4--4--4--4--4--4--4--3--3--3--3--3--3--3--3--


Chorus
E|-----------------------------------------------------------------------------------------------------------------------------------------------------------------------------------------------------------
B|-----------------------------------------------------------------------------------------------------------------------------------------------------------------------------------------------------------
G|--------------10----------------------------------10-------------------------------10----------------------------------10----------------------------------------------------------------------------------
D|--------10-------10-------10----------------10-------10-------6--------------10-------10-------10----------------10-------10-------6-----------------------------------------------------------------------
A|-----------8--------8--------------------------8--------8--------6--------------8--------8--------------------------8--------8--------6--------------------------------------------------------------------
E|--8--8-----------------8-----8--6--6--7--8-----------------4--------3-----8-----------------8-----8--6--6--7--8-----------------4--------3--3--3--3--4--4--4--3--3--3--3--4--4--4--3--3--3--3--4--4--4--3--



Song lyrics here
E|--
B|--
G|--
D|--
A|--
E|--

Paste any tab in acousterr's tab maker and we'll play it !!!
Now supports capo and sound effects for vibrato/pull-off/hammer/bends/mutes etc !!! Checkout help section
tabs and chords, guitar tabs, music transcription, music technology, deep learning, music information retrieval, transcribe into tabs & chords, chordify, music renditions, songsterr, reverbnation, tabulature, bollywood chords, ultimate guitar, yousician, guitar lessons, acoustic guitar, electric guitar, guitar tuner, 911 tabs