Guitar Tabs for Tab Song By Me

(/) Slide Up  (\) Slide Down  (h) Hammer On  (p) Pull Off  (b) Bend (r) Release (v) Vibrato (x) Muted

Tabs for Song : 
BPM : 200
Song lyrics here 
E|-------------------------------------------------------------------------------------------------------------------------
B|-----------------------------------------------------------------------------------------------------------------0--2-----
G|--------------------------------------------------------------------------------2--2--2--0--2--2--2--0--2--2--2-----------
D|--------------------4--4--------------------------------------4--4--6--6--8--8--------------------------------------------
A|--4--4--0--0--4--4--------4--4--0--0--------4--4--------4--4--------------------------------------------------------------
E|--------------------------------------0--0--------4--4--------------------------------------------------------------------


Song lyrics here

Use manual mode to free up cursor. Paste any tab in acousterr tab maker and we'll play it !!!
E|--0--0--2--0--------0--0--2--0-----0--------------0--2-----------------------------------------------------
B|--------------2--0--------------2-----0--0--0--2--------2--------------------------------------------------
G|-----------------------------------------------------------2--0--0--2--2--0--0-----------------------------
D|--------------------------------------------------------------------------------2--0-----------------------
A|--------------------------------------------------------------------------------------4--0-----------------
E|--------------------------------------------------------------------------------------------4--0--2--2--2--
tabs and chords, guitar tabs, music transcription, music technology, deep learning, music information retrieval, transcribe into tabs & chords, chordify, music renditions, songsterr, reverbnation, tabulature, bollywood chords, ultimate guitar, yousician, guitar lessons, acoustic guitar, electric guitar, guitar tuner, 911 tabs