Guitar Tabs for Vincent Finished

(/) Slide Up  (\) Slide Down  (h) Hammer On  (p) Pull Off  (b) Bend (r) Release (v) Vibrato (x) Muted

Tabs for Song : 
BPM : 160

Song lyrics here 
E|--             G                                 Am
e|---------|-------3-------3-------0---------|-------0---------------0---------|
B|---------|-0-------1-------0-------3---1p0-|---------0-----0-0h1-----0---1---|
G|-----0h2-|-----0-------0-------0-----0-----|-----2-------2-------2---------0-|
D|-0h2-----|---0-------0-------0-------------|---2-------2-------2-------2-----|
A|---------|---------------------------------|-0-------0-------0-------0-------|
E|---------|-3-------3-------3-------3-------|---------------------------------|
             Night...                          Blue...

   Cmaj7                             G
e|-------0---------------0-2-------|-3-------|
B|---------0-----0-----1-------1---|-----0---|
G|-----0-------0-----2-------2---0-|-------0-|
D|---2-------2-----0-------0-------|---0-----|
A|-3-------3-----------------------|---------|
E|---------------------------------|-3-------|
   Summer's...                       Soul...

             G                                 Am
e|---------|-------3-------3-------0---------|-------0---------------0---------|
B|---------|-0-------1-------0-------3---1p0-|---------0-----0-0h1-----0---1---|
G|-----0h2-|-----0-------0-------0-----0-----|-----2-------2-------2---------0-|
D|-0h2-----|---0-------0-------0-------------|---2-------2-------2-------2-----|
A|---------|---------------------------------|-0-------0-------0-------0-------|
E|---------|-3-------3-------3-------3-------|---------------------------------|
             Hills...                          Daffodils...

   Cmaj7                             G
e|-------0---------------0-2-------|-3---------------------3-|
B|---------0-----0-----1-------1---|-----0---1/3-1p0---------|
G|-----0-------0-----2-------2---0-|-------0---------0-------|
D|---2-------2-----0-------0-------|---0-----2/4-2p0-----0---|
A|-3-------3-----------------------|-------------------------|
E|---------------------------------|-3-----------------3-----|
   Winter...                         Land...

             Am              D7                G       Gmaj7/F#
e|-------0-|---------------0-2-------2-------|-------3-2-----0-------0---------|
B|-0h1/3---|-1-----0-0h1-3-------1-------1---|-0-----------0-----------1---3---|
G|---------|-----2-------------2---2---2---0-|-----0---------------0-----0---0-|
D|-0h2/4---|---2-------2-----0---------------|---0-------0-----------2---------|
A|---------|-0-------0---------------0-------|-------------------2-------------|
E|---------|---------------------------------|-3-------2-------0---------------|
        Understand...                          Say...          Em

   Am7               D                 Em
e|-------0-----------------0-2-------|-0---------------|
B|-1-------0---0h1-------1-------1-3-|-0---------------|
G|-----0-----------0---2-------2-----|-0---------------|
D|---2-------2-------0---------------|-2---------------|
A|-0-------0-----------------0-------|-2---------------|
E|-----------------------------------|-0---------------|
   Sanity...                           Free...

   A7              Am7     D7     *  G
e|---------0----------------------0|-3-------2---0-------0---|
B|-------2-----2---1-----1-----1---|-----0-----------3-------|
G|-----0---------0-----0-----2-----|-------0-------0-------0-|
D|---2-------2-------2-----0-------|---0-------0-------0-----|
A|-0-------0-------0---------------|-------------------------|
E|---------------------------------|-3-------3-------3-------|
   Not know how...                   Now...

             G                                 Am
e|---------|-------3-------3-------0---------|-------0---------------0---------|
B|---------|-0-------1-------0-------3---1p0-|---------0-----0-0h1-----0---1---|
G|-----0h2-|-----0-------0-------0-----0-----|-----2-------2-------2---------0-|
D|-0h2-----|---0-------0-------0-------------|---2-------2-------2-------2-----|
A|---------|---------------------------------|-0-------0-------0-------0-------|
E|---------|-3-------3-------3-------3-------|---------------------------------|
             Night...                          Brightly blaze...

   Cmaj7           D7                G
e|-------0---------------0-2-------|-3-------|
B|---------0-----0-----1-------1---|-----0---|
G|-----0-------0-----2-------2---0-|-------0-|
D|---2-------2-----0-------0-------|---0-----|
A|-3-------3-----------------------|---------|
E|---------------------------------|-3-------|
   Violet haze...              China blue...

             G                                 Am
e|---------|-------3-------3-------0---------|-------0---------------0---------|
B|---------|-0-------1-------0-------3---1p0-|---------0-----0-0h1-----0---1---|
G|-----0h2-|-----0-------0-------0-----0-----|-----2-------2-------2---------0-|
D|-0h2-----|---0-------0-------0-------------|---2-------2-------2-------2-----|
A|---------|---------------------------------|-0-------0-------0-------0-------|
E|---------|-3-------3-------3-------3-------|---------------------------------|
             Hue...                            Amber grain...

   Cmaj7           D7                G
e|-------0---------------0-2-------|-3-------|
B|---------0-----0-----1-------1---|-----0---|
G|-----0-------0-----2-------2---0-|-------0-|
D|---2-------2-----0-------0-------|---0-----|
A|-3-------3-----------------------|---------|
E|---------------------------------|-3-------|
   Lined in pain...                  Hand...

             Am              D7                G       Gmaj7/F#
e|-------0-|---------------0-2---------------|-------3-2-----0-------0---------|
B|-0h1/3---|-1-----0-0h1-3-------1---1---1---|-0-----------0-----------1---3---|
G|---------|-----2-------------2---2---2---0-|-----0---------------------0---0-|
D|-0h2/4---|---2-------2-----0---------------|---0-------0---------2-----------|
A|---------|-0-------0---------------0-------|-------------------2-------------|
E|---------|---------------------------------|-3-------2-------0---------------|
        Understand...                          Say...          Em

   Am7               D                 Em
e|-------0---------------------------|-0---------------|
B|-1-------0---0h1-------1-3-----1-3-|-0---------------|
G|-----0-----------0---2-------2-----|-0---------------|
D|---2-------2-------0---------------|-2---------------|
A|-0-------0-----------------0-------|-2---------------|
E|-----------------------------------|-0---------------|
   Sanity...                           Free...

   A7              Am7     D7     *  G
e|---------0----------------------0|-3---------------|
B|-------2-----2---1-----1-----1---|-------0-1---3---|
G|-----0---------0-----0-----2-----|-----0-----0---0-|
D|---2-------2-------2-----0-------|---0-----2---4---|
A|-0-------0-------0---------------|-----------------|
E|---------------------------------|-3---------------|
   Not know how...                   Now...

   Am              D7      D7/A      G       G/F#    Em                Am              Cm
e|-------0-----0---2---2---2---2---|-------3---------0-----------0---|-0-------------------------------|
B|-1-------3-----1-----------------|-0-------0-----0---------0-------|-1---------------4---------------|
G|-----2-----2-------2---2---2---0-|-----0-------0---------0---------|-2---------------5---------------|
D|---2-------------0---------------|---0-------0---------2-----2---2-|-2---------------5---------------|
A|-0-------0---------------0-------|-------------------2-------------|-0---------------3---------------|
E|---------------------------------|-3-------2-------0---------------|---------------------------------|
   Love you...                       True...                           Hope...         Starry...

   G       F       E7                Am7             Cmaj7
e|-------------------------0-------|-------0---------------0---------|
B|-----0-----------------3---3-3---|---------0---1-----------0-----0-|
G|-----0-------2-------1-------1-0-|-----0---------0-----0-------0---|
D|---0---------3-------2-----------|---2-------2-------2-------2-----|
A|-----------3-------2-------------|-0-------0-------3-------3-------|
E|-3-------1-------0---------------|---------------------------------|
   Took...                           Could've...

   D7sus2   *  G
e|-------0--0|-3-----------------------|
B|-----1-----|-----0---1---0-------0---|
G|---2-------|-------0---0---0-------0-|
D|-0---------|---0-----2---0-----0-----|
A|-----------|-------------------------|
E|-----------|-3---------------3-------|
   Beautiful...

             G                                 Am
e|---------|-------3-------3-------0---------|-------0---------------0---------|
B|---------|-0-------1-------0-------3---1p0-|---------0-----0-0h1-----0---1---|
G|-----0h2-|-----0-------0-------0-----0-----|-----2-------2-------2---------0-|
D|-0h2-----|---0-------0-------0-------------|---2-------2-------2-------2-----|
A|---------|---------------------------------|-0-------0-------0-------0-------|
E|---------|-3-------3-------3-------3-------|---------------------------------|
             Night...                          Empty halls...

   Cmaj7           D7                G
e|-------0---------------0-2-------|-3-------|
B|---------0-----0-----1-------1---|-----0---|
G|-----0-------0-----2-------2---0-|-------0-|
D|---2-------2-----0-------0-------|---0-----|
A|-3-------3-----------------------|---------|
E|---------------------------------|-3-------|
   Nameless walls...        Can't forget...

             G                                 Am
e|---------|-------3-------3-------0---------|-------0---------------0---------|
B|---------|-0-------1-------0-------3---1p0-|---------0-----0-0h1-----0---1---|
G|-----0h2-|-----0-------0-------0-----0-----|-----2-------2-------2---------0-|
D|-0h2-----|---0-------0-------0-------------|---2-------2-------2-------2-----|
A|---------|---------------------------------|-0-------0-------0-------0-------|
E|---------|-3-------3-------3-------3-------|---------------------------------|
             Met...                            Ragged clothes...

   Cmaj7           D7                G
e|-------0---------------0-2-------|-3-------|
B|---------0-----0-----1-------1---|-----0---|
G|-----0-------0-----2-------2---0-|-------0-|
D|---2-------2-----0-------0-------|---0-----|
A|-3-------3-----------------------|---------|
E|---------------------------------|-3-------|
   Bloody rose...                    Snow...

             Am              D7                G       Gmaj7/F#
e|-------0-|---------------0-2-------2-------|-------3-2-----0-------0---------|
B|-0h1/3---|-1-----0-0h1-3-------1-------1---|-0-----------0-----------1---3---|
G|---------|-----2-------------2---2---2---0-|-----0---------------0-----0---0-|
D|-0h2/4---|---2-------2-----0---------------|---0-------0-----------2---------|
A|---------|-0-------0---------------0-------|-------------------2-------------|
E|---------|---------------------------------|-3-------2-------0---------------|
           I know...                           Say...          Em

   Am7               D7                Em
e|-------0-----------------0-2-------|-0---------------|
B|-1-------0---0h1-------1-------1---|-0---------------|
G|-----0-----------0---2-------2---0-|-0---------------|
D|---2-------2-------0---------------|-2---------------|
A|-0-------0-----------------0-------|-2---------------|
E|-----------------------------------|-0---------------|
   Sanity...                           Free...

   A7              Am7     D7        G       Gmaj7   G                         G
e|---------0-----------------------|-3-------2---0---------0---------|-----------------3-|
B|-------2-----2---1-----1-----1---|-----0-----------3-------1---0---|---------0-----0---|
G|-----0---------0-----0-----2---0-|-------0-------0-----0---------0-|-----0h2-----0-----|
D|---2-------2-------2-----0-------|---0-------0-------0-------0-----|-0h2-------0-------|
A|-0-------0-------0---------------|---------------------------------|-------------------|
E|---------------------------------|-3-------3-------3-------3-------|---------3---------|
   Listening still...          Never will...

B|--
G|--
D|--
A|--
E|--

Song lyrics here 
E|--
B|--
G|--
D|--
A|--
E|--

Use manual mode to free up cursor. Paste any tab in acousterr tab maker and we'll play it !!!
tabs and chords, guitar tabs, music transcription, music technology, deep learning, music information retrieval, transcribe into tabs & chords, chordify, music renditions, songsterr, reverbnation, tabulature, bollywood chords, ultimate guitar, yousician, guitar lessons, acoustic guitar, electric guitar, guitar tuner, 911 tabs