Bass Tabs for Finished

(/) Slide Up  (\) Slide Down  (h) Hammer On  (p) Pull Off  (b) Bend (r) Release (v) Vibrato (x) Muted

Tabs for Song : Finished 
BPM : 199
G|--------------------------------------------------
D|--------------------------------------------------
A|--2--1--------2--1--------2--1--------2--1--------
E|--------2--1--------2--1--------2--1--------2--1--


Song lyrics here 
G|--------------------------------------------------
D|--------------------------------------------------
A|--2--1--------2--1--------2--1--------2--1--------
E|--------2--1--------2--1--------2--1--------2--1--

Song lyrics here 
G|--------------------------------------------------
D|--------------------------------------------------
A|--------------------------------------------------
E|--2--2--1--1--2--2--1--0--2--2--1--1--2--2--0--0--

G|--------------------------
D|--------------------------
A|--2--1--------2--1--------
E|--------2--1--------2--1--

G|--------------------------------------------------
D|--------------------------------------------------
A|--------------------------------------------------
E|--2--2--1--1--2--2--1--0--2--2--1--1--2--2--1--5--

G|--------------------------
D|--------------------------
A|--2--1--------2--1--------
E|--------2--1--------2--1--

G|--------------------------------------------------
D|--------------------------------------------------
A|--------------------------------------------------
E|--2-----------2-----------2-----------0-----------

G|--------------------------------------------------
D|--------------------------------------------------
A|--------------------------------------------------
E|--1-----------1-----------1-----------0-----------
Repeat last section, then at the end:
G|--19-19-------19-19-------19-19-------------------
D|--------18-18-------18-18-------18-18-19-18-18-18-
A|--------------------------------------------------
E|--------------------------------------------------

Use manual mode to free up cursor. Paste any tab in acousterr tab maker and we'll play it !!!
tabs and chords, guitar tabs, music transcription, music technology, deep learning, music information retrieval, transcribe into tabs & chords, chordify, music renditions, songsterr, reverbnation, tabulature, bollywood chords, ultimate guitar, yousician, guitar lessons, acoustic guitar, electric guitar, guitar tuner, 911 tabs