Guitar Tabs for Finished Song

(/) Slide Up  (\) Slide Down  (h) Hammer On  (p) Pull Off  (b) Bend (r) Release (v) Vibrato (x) Muted

Tabs for Song : 

Song lyrics here
E|----------------------0--/2-4-----4-------------------4b6--------------------------------------------------------
B|--------------------0--------------------------------------------------------------------------------------------
G|--------------1-------------------------4-----4------------------------------------------------------------------
D|--------2----------------------------------4---------------------------------------------------------------------
A|-----2---------------------------------------------------------------7h-9h---------------------------------------
E|--0------------------------------------------------------------------------1b0-11-3--3--3--3--3--3--3--3--3--3--3

E|----------------------------------------------------------------------------3-----------------------------3
B|-------------------------------------------------------------------------3-----3-----------------------3---
G|----------------------------------------------------------------------4-----------4-----------------4------
D|----------------------------------------------5--7--7--8-----------5-----------------5-----------5---------
A|----------------------------------------------------------9-----5-----------------------5-----5------------
E|----3--3--3--3--3--3--3--3--3--3--3--3--3--5-----------------3-----------------------------3---------------

E|-------------------3--------------7--8--7--6-----------------------------------------0--------------0------------
B|----3--------------4--------6--7--------------8--7--7-----------------------------0--------------0-----0---------
G|-------4-----------5-----5-----------------------------------5--------------------------------0-----------0-----0
D|----------5--------5--5--------------------------------7--6-----4-----------------------0------------------------
A|-------------5-----3-----------------------------------------------5---------------------------------------------
E|----------------3-----------------------------------------------------4--3--1--0-----------0-----------------0---

E|-------0-----------------0-----7--7--------7--0-----------------8-----8--7--7--
B|----0-----0-----------0-----0--------0-----------0-----------0-----------------
G|-------------0-----0--------------------0-----------0-----0--------------------
D|-------------------------------------------------------------------------------  
A|----------------------------------------------------------------0--0--------0--
E|----------------0-----------------0--------------------0-----------------------

Song lyrics here
E|--
B|--
G|--
D|--
A|--
E|--

Paste any tab in acousterr's tab maker and we'll play it !!!
Now supports capo and sound effects for vibrato/pull-off/hammer/bends/mutes etc !!! Checkout help section
tabs and chords, guitar tabs, music transcription, music technology, deep learning, music information retrieval, transcribe into tabs & chords, chordify, music renditions, songsterr, reverbnation, tabulature, bollywood chords, ultimate guitar, yousician, guitar lessons, acoustic guitar, electric guitar, guitar tuner, 911 tabs