Ukulele Tabs for Unabridged Narrative Of The Frosh

Unabridged Narrative of the Frosh:


CHORDS: EM, E7M, E7, DM, Gbm, AM

Intro:
A|-----------2-----------2-----------2-----------2--
E|-----0-----------0-----------0-----------0--------
C|--4-----------------------3-----------3-----------
G|--------1-----4-----1-----------1-----------1-----

A|-----------0-----------0-----------0-----------0--
E|-----2-----------2-----------2-----------2--------
C|--1-----------1-----------2-----------2-----------
G|--------2-----------2-----------2-----------2-----

A|-----------0-----------0-----------2-----------2--
E|-----0-----------0-----------0-----------0--------
C|--1-----------1-----------2-----------2-----------
G|--------2-----------2-----------1-----------1-----

Melody:

Gbm DM AM E7- D-D-U-U-D-D-U-U

Gbm AM DM E7- D- DUDU x2


A|--7--------------5--------------4--------5--------7--5--7--5--7--5--4--
E|-----------------------------------------------------------------------
C|-----------------------------------------------------------------------
G|-----------------------------------------------------------------------

A|--------4--------2--------2--------0-----------------------------------
E|-----------------------------------------------------------------------
C|-----------------------------------------------------------------------
G|-----------------------------------------------------------------------






A|--------
E|--------
C|--22-22-
G|--------
tabs and chords, guitar tabs, music contests, music covers, songsterr, reverbnation, renditions, tabulature, bollywood chords, ultimate guitar, yousician, guitar lessons, torrins, fender, gibson, acoustic guitar, electric guitar, youtube covers, gootar, guitar tuner, A-Z tabs, 911 tabs