Bass Tabs for Ulan Bass

(/) Slide Up (\) Slide Down

Tabs for Song : 
BPM : 74

Intro 1
ok so don't play in the first half of the intro, 
play in the second half (the one where I queue you guys)

Intro 2
G|-----------------------------------------------------------------------------------
D|-----------------------------------------------------2--------------------2--------
A|-----------2--------------------2-----------3--3--3-----3--3-----3--3--3-----3--3--
E|--3--3--3-----3--3-----3--3--3-----3--3--------------------------------------------

G|-----------------------------------------------------------------------------------	
D|-----------------------------------------------------2-----------------------------
A|-----------2--------------------2-----------3--3--3-----3--3-----3--3--3--3--2--0--
E|--3--3--3-----3--3-----3--3--3-----3--3--------------------------------------------

Verse 1 - the whole time until the last line (ayan na ang ulan)
G|-----------------------------------------------------------------------------------
D|-----------------------------------------------------2--------------------2--------
A|-----------2--------------------2-----------3--3--3-----3--3-----3--3--3-----3--3--
E|--3--3--3-----3--3-----3--3--3-----3--3--------------------------------------------

ayan na ang ulan

G|--------------
D|--------------
A|-----------3--
E|--3-----------

Pre-Chorus
when there's a dash, that means slide up from the fret to the other fret
so in '3/7' you slide up from the third fret to the 7th fret
also you play the notes here (and in the chorus) as whole notes
whole notes means it lasts for the whole measure
and the measure is how many counts the time signature has
in this case, because the time signature is 6/8, the whole note lasts 6 counts
basically, hit the notes here (and in chorus) and make it last for 6 counts

G|-----------------------	
D|-----------------------
A|--7--5--3-----3/7--5--3
E|-----------------------

Chorus

G|--------------------------------------------------------
D|--------------------------------------------------------
A|-----5--7--3--------5--7--3--------5--7--3-----7---7\3--
E|--3--------------3--------------3-----------------------

Intro 3
ok so unlike the last part, here you play the notes in quarter notes
so that means you hit the note per count
so that means you hit the note 6 times (because 6 counts in one measure)
basically, each note goes bum bum bum bum bum bum
on the 4th string, you play the 3rd fret for 12 counts, 
then slide up to the 5th fret and play that for 12 counts again
G|--------------------
D|--------------------
A|--------------------
E|--3--3------3/8--8--

Verse 2
same thing as Intro 3, but just a different note
do the same quarter note thing
but then in the last line (sa dilim may liwanag, sayong puso may pag-asa)
play it in whole notes
G|-----------------------------------------------------------------------------
D|-----------------------------------------------------------------------------
A|--------------------------------------------------------------------3-----3--
E|--3--3------3/8--8-----3--3------3/8--8-----3--3------3/8--8-----3-----3-----

Pre-Chorus 2
do the same quarter notes here
G|--------------------------
D|--5--4--2------2/5--4--2--
A|--------------------------
E|--------------------------

Chorus 2
unlike the first chorus you do  quarter notes here instead of whole notes
G|--------------------------------------------------------
D|--------------------------------------------------------
A|-----5--7--3--------5--7--3--------5--7--3-----7---7\3--
E|--3--------------3--------------3-----------------------

Intro 4
G|-----------------------------------------------------------------------------------
D|-----------------------------------------------------2--------------------2--------
A|-----------2--------------------2-----------3--3--3-----3--3-----3--3--3-----3--3--
E|--3--3--3-----3--3-----3--3--3-----3--3--------------------------------------------

G|-----------------------------------------------------------------------------	
D|-----------------------------------------------------2-----------------------
A|-----------2--------------------2-----------3--3--3-----3--3-----3--3--3--3--
E|--3--3--3-----3--3-----3--3--3-----3--3--------------------------------------

Verse 3
whole notes here
G|-----------------------
D|-----------------------
A|-----------------------
E|--3--3--8-----3---3/8--

Pre Chorus 3
G|--------------------------------------------------------
D|--------------------------------------------------5--7--
A|--7--5--3-----7--5--3-----7--5--3-----7--5--3--5--------
E|--------------------------------------------------------

Chorus 3
quarter notes here
G|--------------------------------------------------------
D|--------------------------------------------------------
A|-----5--7--3--------5--7--3--------5--7--3-----7---7\3--
E|--3--------------3--------------3-----------------------

Intro 5
G|-----------------------------------------------------------------------------------
D|-----------------------------------------------------2--------------------2--------
A|-----------2--------------------2-----------3--3--3-----3--3-----3--3--3-----3--3--
E|--3--3--3-----3--3-----3--3--3-----3--3--------------------------------------------

G|-----------------------------------------------------------------------------------	
D|-----------------------------------------------------2--------------------2--------
A|-----------2--------------------2-----------3--3--3-----3--3-----3--3--3-----3--3--
E|--3--3--3-----3--3-----3--3--3-----3--3--------------------------------------------
tabs and chords, guitar tabs, music transcription, music technology, deep learning, music information retrieval, transcribe into tabs & chords, chordify, music renditions, songsterr, reverbnation, tabulature, bollywood chords, ultimate guitar, yousician, guitar lessons, acoustic guitar, electric guitar, guitar tuner, 911 tabs