Ukulele Tabs for Twenty One Pilots

(/) Slide Up  (\) Slide Down  (h) Hammer On  (p) Pull Off  (b) Bend (r) Release (v) Vibrato (x) Muted

Smithereens-Tewnty One Pilots

BPM : 200

Song lyrics here 
A|--6--4-----1-----------------1--4--1-----1--------------6-----8--4--------1-----------------1--4--1-----1--------------
E|--------------4--2--2--4--------------4-----------2--------------------------4--2--2--4--------------4--------2--4--2--
C|-----------------------------------------------------------------------------------------------------------------------
G|-----------------------------------------------------------------------------------------------------------------------

A|--13----11-------6--4--6--4-----9--6--6--4--1--------------------13----11-------13-------9-----13----9-----6-----4--4--
E|-----------------------------------------------4--2--2--4--------------------------------------------------------------
C|-----------------------------------------------------------------------------------------------------------------------
G|-----------------------------------------------------------------------------------------------------------------------

A|--------------------13----9--13-9-----6--4-----4-----------------------------13-------9-----6--4--9--6--4--1-----------
E|--4--4--4--4--2--4-----------------------------------4--4--2--4--4--2--4-----------------------------------4--2-----
C|--------------------------------------------------------------------------------------------------------------------
G|--------------------------------------------------------------------------------------------------------------------

A|-----13-11-13-11-------6--4--6--4--------9-----2--4--6--4-----------13-11-13-11----6--4--6--4--------9-----2--4--6--4--
E|--------------------------------------------------------------7--------------------------------------------------------
C|-----------------------------------------------------------------------------------------------------------------------
G|-----------------------------------------------------------------------------------------------------------------------

A|--6--4-----------------------1--1-----1--1-----1--------------6--8--4-----2-----1--------------------------------------
E|--------------4--2--2--4--------------------------------2-----------------------------4--2--6--------6--6-----6--4-----
C|-----------------------------------------------------------------------------------------------------------------------
G|-----------------------------------------------------------------------------------------------------------------------

A|-----1-----------------13----11-------6--4--6--4-----9--6--6--4--1-----------------13-11----13----9-----13----9--6--4--
E|-----------2--4--2--------------------------------------------------4--2--2--4-----------------------------------------
C|-----------------------------------------------------------------------------------------------------------------------
G|-----------------------------------------------------------------------------------------------------------------------

A|--4-----------------------13----9--1--3--9-----6--4--4-----------------------1--3-----9-----6--4--9-----6--4--1-----1--
E|--------4--4--4--4--2--4--------------------------------4--4--2--4--4--2--4--------------------------------------4-----
C|-----------------------------------------------------------------------------------------------------------------------
G|-----------------------------------------------------------------------------------------------------------------------

A|--11----13----11----13----6-----4-----13----11----13----11-------8--------9-----11----13----11----6--------4--1--3-----
E|-----------------------------------------------------------------------------------------------------------------------
C|-----------------------------------------------------------------------------------------------------------------------
G|-----------------------------------------------------------------------------------------------------------------------

A|--11----13----11----8-----------9-----11----13----11----13-------6--------4-----13----11----13----11----8--------------
E|-----------------------------------------------------------------------------------------------------------------------
C|-----------------------------------------------------------------------------------------------------------------------
G|-----------------------------------------------------------------------------------------------------------------------

A|--9-----11----13----11----13----6-----4-----13----11----13----11----8-----------9-----9-----9-----9-----6-----6-----6--
E|-----------------------------------------------------------------------------------------------------------------------
C|-----------------------------------------------------------------------------------------------------------------------
G|-----------------------------------------------------------------------------------------------------------------------

A|--6--4-----4-----4-----4-----1--------------------9-----9-----9-----9-----6-----6-----6-----6-----4-----4-----4-----4--
E|--------------------------------------4-----2--------------------------------------------------------------------------
C|-----------------------------------------------------------------------------------------------------------------------
G|-----------------------------------------------------------------------------------------------------------------------

A|--4-----4-----4--------9-----9-----9-----9-----6-----6-----6-----6-----4-----4-----4-----4-----1-----------------------
E|-----------------------------------------------------------------------------------------------------4-----2-----------
C|-----------------------------------------------------------------------------------------------------------------------
G|-----------------------------------------------------------------------------------------------------------------------

A|--9-----9-----9-----9-----6-----6-----6-----6-----4-----4-----4-----4-----4-----4-----4--------13----1--1--------------
E|-----------------------------------------------------------------------------------------------------------------------
C|-----------------------------------------------------------------------------------------------------------------------
G|-----------------------------------------------------------------------------------------------------------------------

A|--6-----4-----6-----4--------9-----6-----6-----4--------1-----------------------------------13-------11-------------13-
E|--------------------------------------------------------------4-----2-----2-----4--------------------------------------
C|-----------------------------------------------------------------------------------------------------------------------
G|-----------------------------------------------------------------------------------------------------------------------

A|--9-----13----9-----------6-----4-----4--------------------------------------------13-------------9-----1--3--------9--
E|-----------------------------------------------4-----4-----4-----4-----2-----4-----------------------------------------
C|-----------------------------------------------------------------------------------------------------------------------
G|-----------------------------------------------------------------------------------------------------------------------

A|--------6-----4-----4--------------------------------------------------13----------9-----13----9--------6-----4--4-----
E|-----------------------------4-----4-----2-----4-----4-----2-----4-----------------------------------------------------
C|-----------------------------------------------------------------------------------------------------------------------
G|-----------------------------------------------------------------------------------------------------------------------

A|-----------------------------------------13-------------9-----13-------9--------6-----4-----4--------------------------
E|--4-----4-----4-----4-----2-----4--------------------------------------------------------------------4-----4-----2-----
C|-----------------------------------------------------------------------------------------------------------------------
G|-----------------------------------------------------------------------------------------------------------------------

A|-----------------------------13-------------9-----------6-----4-----9--------6-----4-----1-----------------------------
E|--4-----4-----2-----4--------------------------------------------------------------------------4-----2-----------------
C|-----------------------------------------------------------------------------------------------------------------------
G|-----------------------------------------------------------------------------------------------------------------------

A|-----13----11----13----11----------6-----4-----6-----4--------------9-----------2-----4-----6-----4--------------------
E|-----------------------------------------------------------------------------------------------------------7-----------
C|-----------------------------------------------------------------------------------------------------------------------
G|-----------------------------------------------------------------------------------------------------------------------

A|--------13----11----13----11-------6-----4-----6-----4--------------9-----------2-----4-----6-----4--------------------
E|-----------------------------------------------------------------------------------------------------------------------
C|-----------------------------------------------------------------------------------------------------------------------
G|-----------------------------------------------------------------------------------------------------------------------



tabs and chords, guitar tabs, music transcription, music technology, deep learning, music information retrieval, transcribe into tabs & chords, chordify, music renditions, songsterr, reverbnation, tabulature, bollywood chords, ultimate guitar, yousician, guitar lessons, acoustic guitar, electric guitar, guitar tuner, 911 tabs